» » »

Auletta, Im Westen Tabs (ver.1)

Artists:  A B C D E F G H I J K L M N O P Q R S T U V W X Y Z # 

Im Westen Tabs (ver.1)

Auletta Tabs
 Rating:
4/5 (4 votes)
Im Westen lessons Tabs too difficult? Try these video lessons and learn fast
                Hoert euch das Lied erst einmal an und dann legt los :D

e|-------------------------------|
B|-------------------------------|
G|--44464---44464---444676477764-| 2x
D|-4-----4-2-----4-2-------------|
A|-------------------------------|
E|-------------------------------|

Strophen (Bass) auf der Gitarre
1. Strophe

e|------------------------------------|
B|------------------------------------|
G|------------------------------------|
D|------------------------------------|
A|------------------------------------|
E|-7-7-7-757-7-7-753-3-3-357-7-7-7(6)-|

Bridge (ein Schuss...)
                                                        F# [x=Ja hier im...]
e|------------------------------------------------------|2-2-2-2-2-x-|
B|------------------------------------------------------|2-2-2-2-2-x-|
G|-----------------444642-444642------------------------|3-3-3-3-3-x-|
D|-4-4-4-432-2-2-24------2------2-----------------------|4-4-4-4-4-x-|
A|------------------------------x-----------------------|4-4-4-4-4-x-|
E|------------------------------5-5-5-543-3-3-345-5-5-5-|2-2-2-2-2-x-|

[Ende der Bridge: hier koennt ihr entweder F# spielen oder auf der E Seite ein fis; so 
Auletta es; spielt es so, wie es euch besser gefaellt]

Refrain [Hoert euch das Lied noch einmal an fuer den Rhythmus][...Westen nichts neues...]

                                F#    F#
   G   A   G   F#  G   A   G   Satt  Satt
e|-3---5---3---2---3---5---3~ |-2-   -2-|
B|-3---5---3---2---3---5---3~ |-2-   -2-|
G|-4---6---4---3---4---6---4~ |-3-   -3-|
D|-5---7---5---4---5---7---5~ |-4-   -4-|
A|-5---7---5---4---5---7---5~ |-4-   -4-|
E|-3---5---3---2---3---5---3~ |-2-   -2-|


Satt.
e|-------------------------------|
B|-------------------------------|
G|--44464---44464---444676477764-|
D|-4-----4-2-----4-2-------------|
A|-------------------------------|
E|-------------------------------|


2. Strophe

e|-------------------------|
B|-------------------------|
G|-------------------------|
D|-------------------------|
A|-------------------------|
E|-7-7-7-757-7-7-753-3-3-3-|

Bridge (ein Schuss...)
                                                        F# [x=Ja hier im...]
e|------------------------------------------------------|2-2-2-2-2-x-|
B|------------------------------------------------------|2-2-2-2-2-x-|
G|-----------------444642-444642------------------------|3-3-3-3-3-x-|
D|-4-4-4-432-2-2-24------2------2-----------------------|4-4-4-4-4-x-|
A|------------------------------x-----------------------|4-4-4-4-4-x-|
E|------------------------------5-5-5-543-3-3-345-5-5-5-|2-2-2-2-2-x-|

[Ende der Bridge: hier koennt ihr entweder F# spielen oder auf der E Seite ein fis; so 
Auletta es; spielt es so, wie es euch besser gefaellt]

Refrain #2

                                F#    F#
   G   A   G   F#  G   A   G   Satt  Satt
e|-3---5---3---2---3---5---3~ |-2-   -2-|
B|-3---5---3---2---3---5---3~ |-2-   -2-|
G|-4---6---4---3---4---6---4~ |-3-   -3-|
D|-5---7---5---4---5---7---5~ |-4-   -4-|
A|-5---7---5---4---5---7---5~ |-4-   -4-|
E|-3---5---3---2---3---5---3~ |-2-   -2-|

Solo
e|-----------------------------------------|
B|-----------------------------------------|
G|--444676-4444676-474-74-747474-6/7-6~4~6-|
D|-4---------------------------------------|
A|-----------------------------------------|
E|-----------------------------------------|

e|----------------------------5-7~-7~------|
B|-577777575777775757777757575-------------|
G|-----------------------------------------|
D|-----------------------------------------|
A|-----------------------------------------|
E|-----------------------------------------|

Bridge/Refrain #3

                           (x=nach 1. ab)
   G   A       Bm  G   A   A
e|-3---5---5---2---3---5----|5x
B|-3---5---7---3---3---5----|5x
G|-4---6---7---4---4---6----|6x
D|-5---7---7---4---5---7----|7x
A|-5---7---5---2---5---7----|7x
E|-3---5---5---2---3---5----|5x

Bass (E Seite); Gitarre (A,D,G,B,e Seiten)

[Ihr spielt entweder den Gitarrenteil ODER den Bassteil, den ich auf die Gitarre 
habe, sodass ihr den Part wenn ihr wollt auch auf eurer Gitarre spielen koennt]

e|--------------------------------------|
B|---------44464---44464---444676477764-|
G|--------4-----4-2-----4-2-------------|
D|--------------------------------------|
A|--------------------------------------|
E|-7~-57~-57~-----57------53-----57-----|

e|--------------------------|
B|--44464---44464---4446764-|
G|-4-----4-2-----4-2--------|
D|--------------------------|
A|--------------------------|
E|-7~-----57------53--------|

e|------------------|
B|------------------|
G|------------------|
D|------------------|
A|------------------|
E|-2---2-2-2-2-2222-|

Outro [Ja hier im Westen nichts neues...und werden nicht mehr satt.]

   G   A   G   F#  G   A   G   F#
e|-3---5---3---2---3---5---3---2-|
B|-3---5---3---2---3---5---3---2-|
G|-4---6---4---3---4---6---4---3-|
D|-5---7---5---4---5---7---5---4-|
A|-5---7---5---4---5---7---5---4-|
E|-3---5---3---2---3---5---3---2-|

(Im  Westen nichts neues...)

   G   A       Bm  G   A
e|-3---5---5---2---3---5x-|
B|-3---5---7---3---3---5x-|
G|-4---6---7---4---4---6x-|
D|-5---7---7---4---5---7x-|
A|-5---7---5---2---5---7x-|
E|-3---5---5---2---3---5x-|

Schreibt mir wie ihr es findet, oder ob ihr Verbesserungsvorschlaege anzumerken habt; 
etwas nicht korrekt ist - sagt es mir und ich korrigiere es!
            
Submit corrections

comments powered by Disqus
↑ Back to top | Auletta Tabs for Im Westen. Lyrics for acoustic guitar and electric guitar. Tablatures and chords are parodies/interpretations of the original songs. You may use it for private study, scholarship, research or language learning purposes only