» » »

My Foggy Notion Tabs (ver.1)

Artists:  A B C D E F G H I J K L M N O P Q R S T U V W X Y Z # 

My Foggy Notion Tabs (ver.1)

Auf Der Maur
Rating:
0/5 (0 votes)

Tabs too difficult? Try these video lessons and learn fast.
                Tuning: Dropped D

Gtr 1: Distorsion, bridge pick up

h  : hammer on
p  : pull off
/  :slide
b  : bend
rb :release bend
.  :let ring

INTRO
Gtr 1
e------------------------------------------|
B------------------------------------------|
G-4-x-7--4--3-x-3-x-3----------------------|
D-4-x-7--4--3-x-3-x-3----------------------|
A-2-x-5--2--1-x-1-x-1----------------------|
D------------------------------------------|
Synth
e----------------------------------------|
B-12----10-------------------------------|
G----11----------------------------------|
D----------9-----------------------------|
A----------------------------------------|
D----------------------------------------|
Gtr 2
e------------------------------------------|
B------------------------------------------|
G-11-11-11--10-10-10-----------------------|
D------------------------------------------|
A---9--9------8--8-------------------------|
D------------------------------------------|

VERSE
Gtr 1
e------------------------------------------|
B------------------------------------------|
G-4-x-4--4--3-x-3-x-3----------------------|
D-4-x-4--4--3-x-3-x-3----------------------|
A-2-x-2--2--1-x-1-x-1----------------------|
D------------------------------------------|
Gtr 2
e-----------------------------------------|
B-----------------------------------------|
G-11-11-11--10-10-10----------------------|
D-----------------------------------------|
A---9--9------8--8------------------------|
D-----------------------------------------|

CHORUS
e------------------|
B------------------|
G------------------|
D-5--4--2-4-1--4-1-|
A-5--4--2-4-1--4-1-|x2
D-5--4--2-4-1--4-1-|

INTRO RIFF

VERSE

BRIDGE
Gtr 1
e---------------------------------|
B---------------------------------|
G-4.--3---2-----------------------|
D-4.--3---2-----------------------|
A-2.--1---0-----------------------|
D---------------------------------|
Gtr 2 (with tremolo)
e----------------------|
B-------7-9-7-6--------|
G-8.--8---------7-6----|
D----------------------|
A----------------------|
D----------------------|

CHORUS (palm muted) x1

CHORUS x2

then
e------------------------------------------|
B------------------------------------------|
G------------------------------------------|
D-9--8--6-8-5--8-5--8-5--8-5--8-5----------|
A-9--8--6-8-5--8-5--8-5--8-5--8-5----------|
D-9--8--6-8-5--8-5--8-5--8-5--8-5----------|

goes on and on

Enjoy. For corrections, comments, death threats and maybe requests please e-mail 
            
Tabs too difficult? Try these video lessons and learn fast.




comments powered by Disqus
↑ Back to top | Tablatures and chords are parodies/interpretations of the original songs. You may use it for private study, scholarship, research or language learning purposes only