>
 >
Devils Plaything

Devils Plaything Guitar Tabs

Auf Der Maur - Devils Plaything chords, tabs, tablatures, lyrics

Guitar lessons | Add/correct | Request | Top 50 tabs Artists:  A B C D E F G H I J K L M N O P Q R S T U V W X Y Z 0-9

Devils Plaything Guitar Tabs – Auf Der Maur

CD, Sheet music, Poster

Do you like Devils Plaything? Share with your friends now
Tabs
Melissa Auf Der Maur & Karen Elson - Devil's Plaything


================================================

Standard Tuning


   E5        D5       C5        A5       D 
e|-----    -----    ------    -----    ------
B|-----    -----    ------    -----    ------
G|--9--    --7--    ------    -----    ------
D|--9--    --7--    --10--    --7--    --12--
A|--7--    --5--    --10--    --7--    --12--
E|-----    -----    --8---    --5--    --10--


Intro:
e|-----------------------------------------------------------------------|
B|-----------------------------------------------------------------------|
G|---9-----9-----------7--------9-----------------------9-9-9------------|
D|-----9-----9-----------7--------9---------------------9-9-9------------| x1
A|-7-----7-----7-0--5------5/7----------5-7----5-7-5-7-------------------|
E|------------------------------------0------0---------------------------|


VERSE 1: (no guitar)
Love is a flame
A devil's thing
A violent storm
About to be born
Just look in these eyes
and See if they lie
All these words that i say
You cannot deny


e|----------------------------------------------------------------------------|
B|----------------------------------------------------------------------------|
G|---9-----9-----------7--------9---------9-----9-----------7--------9--9-9-9-|
D|-----9-----9-----------7--------9---------9-----9-----------7------9--9-9-9-| x1
A|-7-----7-----7-0--5------5/7------0---7-----7-----7-0--5------5/7-----------|
E|----------------------------------------------------------------------------|


VERSE 2:

E5
And this flame

D5         E5 
That burns inside

E5
If you get too close

D5       E5
you Burn you alive

E5
Just look in these eyes

D5      E5    
And see if they lie

E5
All these things I speak

D5         E5 
You cannot deny


e|--------------------------------------------|
B|--------------------------------------------|
G|--9-9------------------------------9-9-9-9--|
D|--9-9--x--10--10-10-10---12-12--x--9-9-9-9--| x2
A|--7-7--x--10--10-10-10---12-12--x--7-7-7-7--|
E|-------x--8---8--8--8----10-10--x-----------|


VERSE 3:

E5    C5
Got a light

A5        E5 
Shines on me

E5       C5
a Gentle light

D       E5 
It will never be

E5      C5
See the flame

A5    E5
In my hand

E5                     C5
If you're playing with fire

D                 E5
You're playing in Hell





CHORUS:

E5          C5 
Devil's plaything

D     E5 
In my hands

E5                C5
If you don't want pain

D              E5 
You don't understand

E5    C5 
Got a light

D         E5
Shines on me

E5                 C5
If you wanna touch flames

D         E5
Come unto me


e|--------------------------------------------------------------------------------------|
B|--------------------------------------------------------------------------------------|
G|--9-9----------------------------9-9-9-9----9-9------------------------------9-9-9-9--|
D|--9-9--x--10--10-10-10---7-7--x--9-9-9-9----9-9--x--10--10-10-10---12-12--x--9-9-9-9--|x1
A|--7-7--x--10--10-10-10---7-7--x--7-7-7-7----7-7--x--10--10-10-10---12-12--x--7-7-7-7--|
E|-------x--8---8--8--8----5-5--x------------------x--8---8--8--8----10-10--x-----------|





Verse 4:

E5    C5
Got a flame

A5      E5 
Burns inside

E5                 C5
If you don't wanna burn

D            E5 
Just walk on by

E5      C5
And the pain

A5             E5
You're feeling now

E5               C5
Ain't nothing compared

D                  E5
To the pleasures I hide


CHORUS:
Devil's plaything
In my hands
If you don't want pain
You don't understand
Got a light
Shines on me
If you wanna touch flames
Come unto me


e|--------------------------------------------------------------------------------------|
B|--------------------------------------------------------------------------------------|
G|--9-9----------------------------9-9-9-9----9-9------------------------------9-9-9-9--|
D|--9-9--x--10--10-10-10---7-7--x--9-9-9-9----9-9--x--10--10-10-10---12-12--x--9-9-9-9--|x1
A|--7-7--x--10--10-10-10---7-7--x--7-7-7-7----7-7--x--10--10-10-10---12-12--x--7-7-7-7--|
E|-------x--8---8--8--8----5-5--x------------------x--8---8--8--8----10-10--x-----------|


Verse 5: (played like Verse 3 & 4)
Got a flame
In my hand
If you don't want a fire
Step out of my light
Walk on by
Just look away
'Cause if you're on my path
You're better off dead

CHORUS:
Devil's plaything
In my hands
If you don't want pain
You don't understand
Got a light
Shines on me
If you wanna touch flames
Come unto me

Oh oh oh oh oh
Oh oh oh oh oh oh oh
Oh oh oh oh oh
Oh oh oh oh oh oh oh

CHORUS:
Devil's plaything
In my hands
If you don't want pain
You don't understand
Got a light
Shines on me
If you wanna touch flames
Come unto me

If you wanna touch flames
Come unto me

If you wanna touch flames
Come unto me

If you wanna touch flames
Come unto me



E5        C5
Come unto me

E5        C5    (and so on)  
Come unto me
Come unto me
Come unto me
Come unto me
Come unto me
Come unto me
Come unto me
Come unto me





Comments


Popular Auf Der Maur tabs & chords
Followed The Waves Bass Tabs
Lightning Is My Girl Bass Tabs
Beast Of Honour Tabs
Followed The Waves Tabs
Followed The Waves 1 Tabs
Isis Speaks Tabs
My Foggy Notion Tabs
Real A Lie Tabs
Taste You Tabs
Taste You Ukulele


Song lyrics



↑ Back to top | Tablatures and chords are parodies/interpretations of the original songs. You may use it for private study, scholarship, research or language learning purposes only
© 2014 AZChords.com Contact us | Privacy policy | DMCA | Add/correct tabs | Request tabs | Top 50 tabs