» » »

Beast Of Honor Tabs (ver.1)

Artists:  A B C D E F G H I J K L M N O P Q R S T U V W X Y Z # 

Beast Of Honor Tabs (ver.1)

Auf Der Maur
Rating:
5/5 (1 vote)

Hard to play? Try these video lessons and learn fast.
                Tuning: Standard

Gtr 1: Distorsion, flanger
Gtr 2: Distorsion

h  : hammer on
p  : pull off
/  :slide
b  : bend
rb :release bend
.  :let ring
*  :natural harmonics

INTRO

Gtr 1
e-----------------------|
B-----------------------|
G-10-10-10/9--9-9-9-----|
D-10-10-10/9--9-9-9-----|
A-8--8--8-/7--7-7-7-----|x3
E-----------------------|

then
e----------------|
B----------------|
G-10-10-10/12/9--|
D-10-10-10/12/9--|
A-8--8--8-/10/7--|
E----------------|

VERSE (SAME AS INTRO BUT PALM MUTED)

Gtr 1
e------------------------|
B------------------------|
G-10-10-10/9--9-9-9------|
D-10-10-10/9--9-9-9------|
A-8--8--8-/7--7-7-7------|
E------------------------|
Gtr 2
e-------------------------|
B-------------------------|
G-5-5-5/4--4-4-4----------|
D-5-5-5/4--4-4-4----------|
A-3-3-3/2--2-2-2----------|
E-------------------------|

then
Gtr 1
e----------------|
B----------------|
G-10-10-10/12/9--|
D-10-10-10/12/9--|
A-8--8--8-/10/7--|
E----------------|
Gtr 2
e-----------|
B-----------|
G-5-5-5/7/4-|
D-5-5-5/7/4-|
A-3-3-3/5/2-|
E-----------|


PRE CHORUS (staccatos)
e---------------------

B---------------------|
G---------------------|
D-7-7--7-7-7--------7-|
A-7-7--7-7-7----------|
E-5-5--5-5-5--5-5-6---|

INTRO RIFF

VERSE

PRE CHORUS

CHORUS
e--------------------------------|
B--------------------------------|
G-7---3-----------7---3----------|
D-7---3---3---2---7---3---3---5--|
A-5.--1.--3---2---5.--1.--3---5--|
E---------1.--0.----------1.--3.-|

BACK TO INTRO RIFF

BRIDGE
e--------------------|
B--------------------|
G-4*--4*-4*---4*-4*--|
D-4*--4*-4*---4*-4*--|
A-2*--2*-2*---2*-2*--|
E--------------------|

e------------------------------------------|
B------------------------------------------|
G--4-4-4/5-5--4-4-4/5-5--4-4-4/5-5---------|
D--4-4-4/5-5--4-4-4/5-5--4-4-4/5-5---------|
A--2-2-2/3-3--2-2-2/3-3--2-2-2/3-3---------|
E------------------------------------------|
   ...............pm..............

e------------------------------------------|
B------------------------------------------|
G--4-4-4/5-5--4-4-4/5-5--4-4-4/5-5----4----|
D--4-4-4/5-5--4-4-4/5-5--4-4-4/5-5----4----|
A--2-2-2/3-3--2-2-2/3-3--2-2-2/3-3----2----|
E------------------------------------------|

Gtr 1
e-------------------------------------------|
B-------------------------------------------|
G-5--7--2--4--------------------------------|
D-5--7--2--4--------------------------------|
A-3--5--0--2--------------------------------|
E-------------------------------------------|
  (staccatos)
Gtr 2
e-------------------------------------------------------------------|
B-------------------------------------------------------------------|
G-9-9-9-9-9-9-9-11-11-11-11-11-11-12-12-12-12-12-14-14-14-14-14-14--|
D-------------------------------------------------------------------|
A-------------------------------------------------------------------|
E-------------------------------------------------------------------|

CHORUS

PRE CHORUS

Enjoy! For corrections, comments, death threats and maybe requests please e-mail 
            
Hard to play? Try these video lessons and learn fast. | Correct




comments powered by Disqus
↑ Back to top | Tablatures and chords are parodies/interpretations of the original songs. You may use it for private study, scholarship, research or language learning purposes only