>
 >
22 Below

22 Below Guitar Tabs

Auf Der Maur - 22 Below chords, tabs, tablatures, lyrics

Guitar lessons | Add/correct | Request | Top 50 tabs Artists:  A B C D E F G H I J K L M N O P Q R S T U V W X Y Z 0-9

22 Below Guitar Tabs – Auf Der Maur

CD, Sheet music, Poster

Do you like 22 Below? Share with your friends now
Tabs
-------------------------------------------------------------------------------
                        22 Below - Melissa Auf Der Maur
-------------------------------------------------------------------------------


Tuning: Standard

Riff 1:
e|---------------------------------------------------------------------|
B|---------------------------------------------------------------------|
G|---------------------------------------------------------------------|
D|----------10----------------10----------------5--------------5-------|
A|---------------------------------------------------------------------|
E|-8---11-8------11--8---11-8----11-8-\-3---6-3-----6--3---6-3---6-3-/-|

Riff 2:
e|-----------------------------------------------------------------|
B|-----------------------------------------------------------------|
G|-----------------------------------------------------------------|
D|-----5-3-6-5-3-5-----5-3-6-5-3-5-----5-3-6-5-3-5-----5-3-6-5-3-5-|
A|-3---------------3---------------2---------------2---------------|
E|-----------------------------------------------------------------|

e|------------------------|
B|------------------------|
G|------------------------|
D|-----5-3/9--------5-3/9-|
A|------------------------|
E|-4------------4---------|

Riff 3:
e|----------------------------------------------------------------|
B|----------------------------------------------------------------|
G|---------------5h6p5-----5h6p5----------------------------------|
D|---------6-----------6---------6-------------5------------5-----|
A|-----6-----6-----------6---------6-------5-----5------5-----5---|
E|-4-----4-----4---------------------4-3-----3------3-----3-----3-|

Riff 4:
   Cm                    B               Eb                    G
e|-8---8---8---8---8--8--7--7--7--7--7-7-11--11--11--11--11-11-3--3--3--3--3-3-|
B|-8---8---8---8---8--8--7--7--7--7--7-7-11--11--11--11--11-11-3--3--3--3--3-3-|
G|-8---8---8---8---8--8--8--8--8--8--8-8-12--12--12--12--12-12-4--4--4--4--4-4-|
D|-10--10--10--10--10-10-9--9--9--9--9-9-13--13--13--13--13-13-5--5--5--5--5-5-|
A|-10--10--10--10--10-10-9--9--9--9--9-9-13--13--13--13--13-13-5--5--5--5--5-5-|
E|-8---8---8---8---8--8--7--7--7--7--7-7-11--11--11--11--11-11-3--3--3--3--3-3-|

Riff 5:
e|------------------------------|
B|------------------------------|
G|------------------------------|
D|------------------------------|
A|-6---6---6---6---11--10--8--6-|
E|---8---8---8---8--------------|

Riff 6:
e|-------------------------------------------------|
B|-------------------------------------------------|
G|-------------------------------------------------|
D|-------------------------------------------------|
A|-6---6---6---6---8-8-8-8-8-8-8-8-9-9-9-9-9-9-9-9-|
E|---8---8---8---8---------------------------------|

Riff 7:
e|---------------------------------|
B|---8-8h9p8-11-9-8-8---3/6-4-3--3-|
G|---------------------------------|
D|---------------------------------|
A|---------------------------------|
E|---------------------------------|


Riff 1 x4
Riff 2
Riff 1 x3
Riff 3
Riff 1 x2
Riff 3
Riff 4 x2
Riff 2
Riff 5 x3
Riff 6
Riff 5 x2
Riff 7 x4

************************************

| /   slide up
| \   slide down
| h   hammer-on
| p   pull-off
| ~   vibrato
| +   harmonic
| x   Mute note
| b   Bend
| pb  Pre-bend
| br  Bend release
| pbr Pre-bend release
| brb Bend release bend

************************************





Comments


Popular Auf Der Maur tabs & chords
Lightning Is My Girl Bass Tabs
Beast Of Honour Tabs
Devils Plaything Tabs
Followed The Waves 1 Tabs
Isis Speaks Tabs
My Foggy Notion Tabs
Real A Lie Tabs
Taste You Tabs
Taste You 1 Tabs
Taste You Ukulele


Song lyrics



↑ Back to top | Tablatures and chords are parodies/interpretations of the original songs. You may use it for private study, scholarship, research or language learning purposes only
© 2014 AZChords.com Contact us | Privacy policy | DMCA | Add/correct tabs | Request tabs | Top 50 tabs