» » »

Your Time Has Come Tabs (ver.1)

Artists:  A B C D E F G H I J K L M N O P Q R S T U V W X Y Z # 

Your Time Has Come Tabs (ver.1)

Audioslave
Rating:
0/5 (0 votes)
Tabs too difficult? Try these video lessons and learn fast.
                Band - Audioslave
Song - Your Time Has Come
Album - Out Of Exile



Intro

e|------------------------------------------------3-----------------|
B|-5-3-5-3-5-3------------------------------3-3-5---5-3-3-----------|
G|-------------4-2-4-2-4-2-4-2-0----0-2-2-4---------------4-2-2-0---|
D|-------------------------------2----------------------------------|
A|------------------------------------------------------------------|
E|------------------------------------------------------------------|


Verse/Outro

e|--------------------------------------------|
B|--------------------------------------------|
G|--------------------------------------------|
D|--------------------------------------------|
A|------7-5---------------7-5-----------------|
E|----------7-5-3-0-----------7-5-3-0-3/5-----|



1st and 2ed Chorus

e|--3---3---0------(0)---|
B|--3---2---2------(0)---|
G|--0---3---2------(0)---|
D|--0---0---2---2--------|
A|--x-------0---2--------|
E|--3-----------0--------|



No Solo, sorry...  There is a pretty close version of it on this site, its only the
first part thats wrong. Play in starting on the 19th fret.



Bridge

               
e|------3---3---0---3-3---|
B|------3---2---2---3-3---|
G|------0---3---2---0-0---|
D|--2---0---0---2---0-0---| 2X
A|--2---x-------0---x-x---|
E|--0---3-----------3-3---|

e|----0---3-3---3-3---0---3-3---|
B|-----0--3--3--2--2--2---3-3---|
G|--------0-----3-----2---0-0---|
D|--2-----0-----0-----2---0-0---| 1X
A|--2-----x-----------0---x-x---|
E|--0-----3---------------3-3---|

e|----0---3-3---3-3-3-3---|
B|-----0--3--3--2-2-2-2---|
G|--------0-----3-3-3-3---| 
D|--2-----0-----0-0-0-0---| 1X
A|--2-----x---------------|
E|--0-----3---------------|



Final Chours

e|--3---3---0------(0)---|
B|--3---2---2------(0)---|
G|--0---3---2------(0)---| 
D|--0---0---2---2--------| 2X
A|--x-------0---2--------|
E|--3-----------0--------|

e|--3---3--------0---------------|
B|--3---2--/7----2---------------|
G|--0---3----7---2---------------|
D|--0---0--------2-------2--/7---|
A|--x------------0--/19--2----7--|
E|--3--------------------0-------|

e|--3---3--------0--|
B|--3---2--/7----2--|
G|--0---3----7---2--|
D|--0---0--------2--|
A|--x------------0--|
E|--3---------------|



e|----|
B|----|
G|----|  
D|-2--| End on
A|-2--|
E|-0--|
            
Tabs too difficult? Try these video lessons and learn fast.


comments powered by Disqus
↑ Back to top | Tablatures and chords are parodies/interpretations of the original songs. You may use it for private study, scholarship, research or language learning purposes only