>
 >
Like A Stone 11

Like A Stone 11 Guitar Tabs

Audioslave - Like A Stone 11 chords, tabs, tablatures, lyrics

Guitar lessons | Add/correct | Request | Top 50 tabs Artists:  A B C D E F G H I J K L M N O P Q R S T U V W X Y Z 0-9

Like A Stone 11 Guitar Tabs – Audioslave

CD, Sheet music, Poster

Do you like Like A Stone 11? Share with your friends now
Bass TabsBass Tabs v2Bass Tabs v3Bass Tabs v4Bass Tabs v5Bass Tabs v6Bass Tabs v7Bass Tabs v8ChordsChords v2Chords v3Chords v4Chords v5Drum TabsTabsTabs v2Tabs v11Tabs v12Tabs v13Tabs v3Tabs v4Tabs v5Tabs v6Tabs v7Tabs v8Tabs v9Tabs v10Ukulele


INTRO AND VERSES:
-------------------
E|-----------------------------------|
B|-----------------------------------|
G|--------------------------8---7----|
D|--8------10---------7--------------|
A|-----10------8---5-----6-----------|
E|-----------------------------------|


CHORUS CHORDS:
----------------
E|------------------------------------|--
B|------------------------------------|--
G|-----------------8----7-------------|----
D|--5----8----3----8----7-------------|------
A|--5----8----3----6----5-------------|----
E|--3----6----1----6----5-------------|----
    G5  A#5   F5  D#5   D5

INTERLUDE CHORDS:
-------------------
E|--6----6----5----6----3----3------|
B|--8----6----7----7----5----3------|
G|--8----7----7----8----5----3------|
D|--8----8----7----8----5----5------|
A|--6----8----5----6----3----5------|
E|-------6-------------------3------|
    D#   A#   D   D#m   C    Gm

INTRO (x2)

VERSE:
On a cold wet afternoon
No room for love and emptiness
By a freeway
I confess I was lost in the pages
Of a book full of death
Reading how we'll die alone
And if a God will lay to rest
Anywhere we want to go

CHORUS:
  G5       A#5     F5       G5
   In your house, I long to be
  G5       A#5   F5     G5
   Room by room, patiently
  D#5               G5      F5     G5
   I'll wait for you there, like a stone
  D#5               G5      D5
   I'll wait for you there, alone

INTRO (x1)

VERSE:
And on my death bed I will prey
To the Gods and the angels
Like a pagan
To anyone who will take me to heaven
To a place I would recall
I was there so long ago
The sky was bruised the world was black
And there you led me on

CHORUS:
  G5       A#5     F5       G5
   In your house, I long to be
  G5       A#5   F5     G5
   Room by room, patiently
  D#5               G5      F5     G5
   I'll wait for you there, like a stone
  D#5               G5      D5     D5
   I'll wait for you there, alone, alone

SOLO:
------
E|-15--17--18---20--18--17--15----15--17-------18--20---22-----|
B|----------------------------------------18-------------------|
G|-------------------------------------------------------------|
D|-------------------------------------------------------------|
A|-------------------------------------------------------------|
E|-------------------------------------------------------------|

E|----------------------------------------|
B|----------------------------------------|
G|--15-15-15-14-14-14---------------------|
D|--------------------15-15-15-12-12-12---|  (x4)
A|----------------------------------------|
E|----------------------------------------|

E|------------------------------------------------|
B|------------------------------------------------|
G|----------------------10-12-14-15-14-15-14~~----|
D|------------10-12-13----------------------------|
A|--10-12-13--------------------------------------|
E|------------------------------------------------|

INTERLUDE:
  D#       A#
 In all I read
 D             D#
 Till the day was gone
  D#m          C
 And I sat in regret
   D                  Gm
 In all the things I've done
 For all that I've blessed
 And all that I've wronged
 In dreams till my death
 I will wonder on

CHORUS:
   In your house, I long to be
   Room by room, patiently
   I'll wait for you there, like a stone
   I'll wait for you there, alone, alone

end on D#5





Comments


Popular Audioslave tabs & chords
Like A Stone 8 Bass Tabs
Doesn't Remind Me Chords
Show Me How To Live Chords
Doesn't Remind Me 2 Tabs
Doesnt Remind Me 2 Tabs
Gasoline 1 Tabs
Light My Way Tabs
Man Or Animal Intro Tabs
Your Time Has Come 7 Tabs
Dandelion Ukulele


Song lyrics



↑ Back to top | Tablatures and chords are parodies/interpretations of the original songs. You may use it for private study, scholarship, research or language learning purposes only
© 2014 AZChords.com Contact us | Privacy policy | DMCA | Add/correct tabs | Request tabs | Top 50 tabs