» » »

Audioslave, Cochise Tabs (ver.7)

Artists:  A B C D E F G H I J K L M N O P Q R S T U V W X Y Z # 

Cochise Tabs (ver.7)

Audioslave Tabs
 Rating:
4/5 (19 votes)
Cochise lessons Tabs too difficult? Try these video lessons and learn fast
                "COCHISE"     AUDIOSLAVE

metronome = 82

h = hammer-on
p = pull-off
b = bend
r = release
~ = vibrato
x = mute string w/ fret hand
/ = slide
# = pick scr*pe
% = repeat previous measure
. = let note ring

INTRO (elec w/dist and slap-back delay)
||----------------------------------|---| approx del time = 92 ms
||----------------------------------|---| mute string w/ left hand to
||-x-x-x-x-x-x-x-x-x-x-x-x-x-x-x-x--|---|   get "helicopter sound"
||-x-x-x-x-x-x-x-x-x-x-x-x-x-x-x-x--|-%-|
||-x-x-x-x-x-x-x-x-x-x-x-x-x-x-x-x--|---|
||-x-x-x-x-x-x-x-x-x-x-x-x-x-x-x-x--|---|

|---------------------------------------------|---| 
|---------------------------------------------|---| 
|-0-------------------------------------------|-%-| 
|-2-------------------------------------------|---|
|-2-------------------------------------------|---|
|-----#################################-------|---|

MAIN RIFF(with no delay) set your EQ a little lower than normal
|---------------------------------------|---|  
|---------------------------------------|---| 
|---------------------------------------|---| 
|-0h2--0---0---------0h2------0---------|-%-| 
|--------2---2------------------2-------|---| 
|--------------3--0..-------------3--0--|---| 

VERSE 
|--------------------------------------|repeat     |--------------| 
|--------------------------------------|a bunch    |--7--------8--| 
|--------------------------------------|of times   |--7--------8--| 
|-0h2--0---0---------0h2------0--------|then       |--7--------8--| 
|--------2---2------------------2------|play >     |--5--------6--| 
|--------------3--0..-------------3--0-|           |--5--------6--| 

CHORUS
|-------------------------------------|---| 
|-------------------------------------|---| 
|-------------------------------------|---| 
|-0h2----0h2--------------------------|-%-| 
|---------------0---------------------|---| 
|------------------3--0.....---3------|---| 

INTERLUDE(Delay on , trem. pick)    (32nd notes)
|------------------------------------------------------------ 
|------------------------------------------------------------ 
|-2b(3)-(3)-(3)-(3)-(3)-(3)-(3)r---2b(3)-(3)-(3)-(3)-(3)r--2-
|------------------------------------------------------------ 
|------------------------------------------------------------ 
|------------------------------------------------------------ 

--------------------------------------------------------------------
--------------------------------------------------------------------
-2-/-14b(15)-(15)r14--14b(15)r--14b(15)r--14b(15)r--14b(15)r--------
--------------------------------------------------------------------
--------------------------------------------------------------------
--------------------------------------------------------------------

-------------------------------|
-------------------------------|
-14b(15)---(15)(15)(15)r....---|
----------------------------0--|
----------------------------0--|
----------------------------0--|

|---------------------------------------|------------------------------------|  
|---------------------------------------|------------------------------------| 
|---------------------------------------|------------------------------------|  
|-0h2--0h2----------------------------0-|-0h2--0h2----------------------2--0-|
|------------0-----------------0---2----|------------3--------------0------0-|
|---------------3--0....--3-------------|---------------0....--3-------------|

|---|-------------------------------------------|---|
|---|-------------------------------------------|---|
|---|-------------------------------------------|-%-|
|-%-|-0h2--0h2----------------------------------|---|
|---|------------0----------------------------x-|---|
|---|---------------3--0....--0--------0------x-|---|

|------------------------------0-----0----|
|------------------------------0-----0----|
|---------------------------------0-------|
|-0h2--0h2--------------------------------|
|------------0----------------------------|  
|---------------3--0....--3---------------|  

BRIDGE
|----------------------------------------------------------|---|
|----------------------------4............-----------------|---|
|---4------------------------------------------------------|-%-|
|-x--------------------------------------------------------|---|
|------------2......-----------------------------2------x--|---|
|----------------------------------------------------------|---|

|-------------------------------|---|-----------|---------------|
|-------------------------------|---|-----------|---------------|
|-------------------------------|-%-|-----------|--7------------|
|-0h2----------0h2....----------|---|--2--------|--7------------|
|-------------------------------|---|-----------|--5------------|
|-------0...-----------0-----x--|---|--------0--|---------------|

|------------------------------------------|---| 
|------------------------------------------|---| 
|----------------------------------------0-|-%-| 
|-9----9-/-----------------------------2---|---| 
|-7----7-/----0--------------------0-------|---| 
|----------------3--0....--3---------------|---| 

Outro
|-----------------------------------------| 4x   |---------|| 
|-----------------------------------------| then |---------||   
|-----------------------------------------|      |-9--9....|| 
|-0h2--0h2------------------------------0-|      |-9--9....|| 
|------------0------------------0----2----|      |-7--7....|| 
|---------------3--0....--3---------------|      |---------||
            
Submit corrections

comments powered by Disqus
↑ Back to top | Audioslave Tabs for Cochise. Lyrics for acoustic guitar and electric guitar. Tablatures and chords are parodies/interpretations of the original songs. You may use it for private study, scholarship, research or language learning purposes only