» » »

You Alone Tabs (ver.1)

Artists:  A B C D E F G H I J K L M N O P Q R S T U V W X Y Z # 

You Alone Tabs (ver.1)

Audacious
Rating:
0/5 (0 votes)

Hard to play? Try these video lessons and learn fast.
                -------------------------------------------------------------------------------
-------------------------------------------------------------------------------

Tuning: Standard

Intro
   C#m                  B         A
e|-------------------7----------|-------------------7----------------------|
B|---------5~-----5-----7--/--9-|---------5~-----5-----7----5-----4--\--2--|
G|-4-h-6-------6----------------|-4-h-6-------6----------------------------|
D|------------------------------|------------------------------------------|
A|------------------------------|------------------------------------------|
E|------------------------------|------------------------------------------|

Verse
C#m         B              A
     All creation worships you
C#m         B                  F#m           A
     All of heaven sings cause you alone are worthy
C#m          B                 A
     Humbled to be called your own
C#m          B                F#m          A
     All our hope is found in your eternal glory

e|-------7----------|
B|----5-----7--/--9-|
G|-6----------------|  Repeat this at the end of lines 1 and 2 or the verse
D|------------------|
A|------------------|
E|------------------|


Chorus
        E             B
Sing to God with everything
      C#m                  A
Shout aloud to the king of heaven
        E                   B
Worship him in his rightful place
        F#m          A         B
King of Glory worthy to be praised


Bridge
(follow on from last line of chorus which changes to "recieve all praise")
    C#m          B
All praise, all glory,
    E           A
All honour, all majesty,
        C#m             B
You are great, you are mighty
           F#m          A
You're the ever lasting king

Instrumental/Solo
e|-------------------------------------------------------7-----------|
B|-10p9h10--9~---7-----7~--/9\7~-----5---7-5---------5------7--/--9~-|
G|------------------9--------------6---6-----6~---6------------------|
D|-------------------------------------------------------------------|
A|-------------------------------------------------------------------|
E|-------------------------------------------------------------------|

e|-------------------------------------------------------------7~----|
B|-12-9-/--14-14~--14b16r14---12h14----------5---7-5-------5h7-------|
G|----------------------------------11~----6---6-----6~--------------|
D|-------------------------------------------------------------------|
A|-------------------------------------------------------------------|
E|-------------------------------------------------------------------|


Extra bit/"Tag"
E                                   C#m
You, and you alone are worthy to be praised
                        B         A
Forever more your glory fills the Earth
                  F#m            C#m
And everyone will bow to worship you
    B
And we will sing..


Beautiful worship song, the solo is one of the best bits, brings a real atmosphere and 
great to play too :) try finger picking it if you feel like it, sounds real nice with a 
touch


************************************

| /   slide up
| \   slide down
| h   hammer-on
| p   pull-off
| ~   vibrato
| +   harmonic
| x   Mute note
| b   Bend
| pb  Pre-bend
| br  Bend release
| pbr Pre-bend release
| brb Bend release bend

************************************
            
Hard to play? Try these video lessons and learn fast. | Correct




comments powered by Disqus
↑ Back to top | Tablatures and chords are parodies/interpretations of the original songs. You may use it for private study, scholarship, research or language learning purposes only