>
 >
Yeah

Yeah Guitar Tabs

Audacious - Yeah chords, tabs, tablatures, lyrics

Guitar lessons | Add/correct | Request | Top 50 tabs Artists:  A B C D E F G H I J K L M N O P Q R S T U V W X Y Z 0-9

Yeah Guitar Tabs – Audacious

CD, Sheet music, Poster

Do you like Yeah? Share with your friends now
Tabs
-------------------------------------------------------------------------------
-------------------------------------------------------------------------------

Tuning: Standard

Intro
Part 1 (just lead guitar)
e|---------------------------------|---------------------------------|
B|---------------------------------|---------------------------------|
G|---------------------------------|---------------------------------|
D|-9--9--\--5--5--\--4--4--/--7--7-|-9--9--\--5--5--\--4--4--/--7--7-|
A|---------------------------------|---------------------------------|
E|---------------------------------|---------------------------------|

Part 2 (lead guitar and rhythm, chords are above the tab)
   B        G          D          A
e|---------------------------------------|
B|---------------------------------------|
G|---------------------------------------|
D|-9--9--/--11--11--/--12--12--/--14--14-|  x2
A|---------------------------------------|
E|---------------------------------------|

Part 3 (both guitars, MAIN RIFF)
   B  G  F#     D   B  G  F#
e|----------------|------------------|
B|----------------|------------------|
G|-4----------x-7-|-4----------------|
D|-4--5--4-4--x-7-|-4--5--4-4--YEAH!-|
A|-2--5--4-4--x-5-|-2--5--4-4--------|
E|----3--2-2------|----3--2-2--------|

Verse  (Palm muted for first two times, loud after)
   B  G  F#     D   B  G  F#
e|----------------|-----------|
B|----------------|-----------|
G|-4----------x-7-|-4---------|
D|-4--5--4-4--x-7-|-4--5--4-4-| x3 (2 quite, 1 loud)
A|-2--5--4-4--x-5-|-2--5--4-4-|
E|----3--2-2------|----3--2-2-|

   E           G
e|------------------------|
B|------------------------|
G|------------------------|
D|-2--2--2--2--5--5--5--5-|
A|-2--2--2--2--5--5--5--5-|
E|-0--0--0--0--3--3--3--3-|

Chorus (lead part tabbed, rhythm chords above)
   B        G        D        A      B        G        D       A
e|---------------------------------|---------------------------------------|
B|---------------------------------|---------------------------------------|
G|---------------------------------|---------------------------------------|
D|-9--9--/--5--5--/--4--4--/--7--7-|-9--9--/--5--5-----5-4-2-4-------------|
A|---------------------------------|---------------------------------------|
E|---------------------------------|---------------------------------------|
   B        G        D        A
e|---------------------------------|
B|---------------------------------|
G|---------------------------------|
D|-9--9--/--5--5--/--4--4--/--7--7-|  x2
A|---------------------------------|
E|---------------------------------|

Bridge (you can play the build up bit of a synth if you have one, or tab)

e|----------------------------|---------------------|--|-------------------|
B|----------------------------|---------------------|--|-----------at the--|
G|----------------------------|---------------------|--|-4---------end of--|
D|-9--9----------------12--12-|-9--9----------------|x4|-4--5--4-4-last----|
A|-------10--10--9--9---------|-------10--10--9--9--|--|-2--5--4-4-time----|
E|----------------------------|---------------------|--|----3--2-2---------|

For the last few time of the bridge, just play the main riff


Have fun with it, good old classic Audacious song, easy to play but you need 2 guitars 
a loud drummer to make up for it :P



************************************

| /   slide up
| \   slide down
| h   hammer-on
| p   pull-off
| ~   vibrato
| +   harmonic
| x   Mute note
| b   Bend
| pb  Pre-bend
| br  Bend release
| pbr Pre-bend release
| brb Bend release bend

************************************





Comments


Popular Audacious tabs & chords
None Compares Chords
Open Heaven 1 Chords
Speechless Chords
Bounce Tabs
Found My Freedom Tabs
On Fire Tabs
Set My Feet Tabs
Open Heaven Ukulele
Overriding Love Ukulele
This Is Life Ukulele


Song lyrics



↑ Back to top | Tablatures and chords are parodies/interpretations of the original songs. You may use it for private study, scholarship, research or language learning purposes only
© 2014 AZChords.com Contact us | Privacy policy | DMCA | Add/correct tabs | Request tabs | Top 50 tabs