» » »

Audacious, Set My Feet Tabs (ver.1)

Artists:  A B C D E F G H I J K L M N O P Q R S T U V W X Y Z # 

Set My Feet Tabs (ver.1)

Audacious Tabs
Rating:
0/5 (0 votes)
Set My Feet lessons Tabs too difficult? Try these video lessons and learn fast
                -------------------------------------------------------------------------------
-------------------------------------------------------------------------------

Tuning: Standard

Intro/Main Riff
   B                 G                           D                 A
e|--------------------------------------------------------------------|
B|-15-15-15-14-14-14-12-12-12-----------------------------------------|
G|----------------------------12-12--------------12-12-12-11-11-11-9~-|
D|-----------------------------------12-12-14-14----------------------|
A|--------------------------------------------------------------------|
E|--------------------------------------------------------------------|

   B                 G                           D                 A
e|-------------------------------------------------------------------------|
B|15-15-15-14-14-14-12-12-12-----------------------------------------------|
G|---------------------------12-12--------------12-12-12-11-11-11-9~-9h11p9|
D|----------------------------------12-12-14-14----------------------------|
A|-------------------------------------------------------------------------|
E|-------------------------------------------------------------------------|


Verse
   Bm          G             D         A
e|-------------------------------------------------------|
B|-------------------------------------------------------|
G|-4-4--4-4--4---------------7-7--7-7--------------------|
D|-4-4--4-4--4-5--5-5--5--5--7-7--7-7--7-7--7-7----------| x2
A|-2-2--2-2--2-5--5-5--5--5--5-5--5-5--7-7--7-7--0h2p0---|
E|-------------3--3-3--3--3------------5-5--5-5--------3-|


PreChorus
   A                 Bm                A                 Em
e|-----------------|-----------------|-----------------|-----------------|
B|-----------------|-----------------|-----------------|-----------------|
G|-2---------------|-4---------------|-2---------------|-9---------------|
D|-2---------------|-4---------------|-2---------------|-9---------------|
A|-0---------------|-2---------------|-0---------------|-7---------------|
E|-----------------|-----------------|-----------------|-----------------|


Interlude
   B                 G                           D                 A
e|--------------------------------------------------------------------|
B|-15-15-15-14-14-14-12-12-12-----------------------------------------|
G|----------------------------12-12--------------12-12-12-11-11-11-9~-|
D|-----------------------------------12-12-14-14----------------------|
A|--------------------------------------------------------------------|
E|--------------------------------------------------------------------|

   B                 G                           D                 A
e|---------------------------------------------------------------------------|
B|15-15-15-14-14-14-12-12-12-------------------------------------------------|
G|---------------------------12-12--------------12-12-12-11-11-11-9~-9h11p9--|
D|----------------------------------12-12-14-14------------------------------|
A|---------------------------------------------------------------------------|
E|---------------------------------------------------------------------------|

Repeat Verse

Repeat PreChorus


Chorus
   G       D       A       Bm        G       D       A
e|---------------------------------|-------------------------------|
B|---------------------------------|-------------------------------|
G|---------7-7-7-7-2-2-2-2-4-4-4-4-|---------7-7-7-7-2-2-2-2-------|
D|-5-5-5-5-7-7-7-7-2-2-2-2-4-4-4-4-|-5-5-5-5-7-7-7-7-2-2-2-2-------|
A|-5-5-5-5-5-5-5-5-0-0-0-0-2-2-2-2-|-5-5-5-5-5-5-5-5-0-0-0-0-------|
E|-3-3-3-3-------------------------|-3-3-3-3-----------------------|

   G       D       A       Bm        G       D       A
e|---------------------------------|-------------------------------|
B|---------------------------------|-------------------------------|
G|---------7-7-7-7-2-2-2-2-4-4-4-4-|---------7-7-7-7-2-2-2-2-------|
D|-5-5-5-5-7-7-7-7-2-2-2-2-4-4-4-4-|-5-5-5-5-7-7-7-7-2-2-2-2-------|
A|-5-5-5-5-5-5-5-5-0-0-0-0-2-2-2-2-|-5-5-5-5-5-5-5-5-0-0-0-0-------|
E|-3-3-3-3-------------------------|-3-3-3-3-----------------------|


Bridge
   Em                G                 Bm                A
e|-----------------|-----------------|-----------------|-----------------|
B|-----------------|-----------------|-----------------|-----------------|
G|-9-----9-9-9-9-9-|-----------------|-4-----4-4-4-4-4-|-2-----2-2-2-2-2-|
D|-9-----9-9-9-9-9-|-5-----5-5-5-5-5-|-4-----4-4-4-4-4-|-2-----2-2-2-2-2-| x2
A|-7-----7-7-7-7-7-|-5-----5-5-5-5-5-|-2-----2-2-2-2-2-|-0-----0-0-0-0-0-|
E|-----------------|-3-----3-3-3-3-3-|-----------------|-----------------|

On the last chorus, play the intro riff behind the words
e|--------------------------------------------------------------------|
B|-15-15-15-14-14-14-12-12-12-----------------------------------------|
G|----------------------------12-12--------------12-12-12-11-11-11-9~-|
D|-----------------------------------12-12-14-14----------------------|
A|--------------------------------------------------------------------|
E|--------------------------------------------------------------------|

e|---------------------------------------------------------------------------|
B|15-15-15-14-14-14-12-12-12-------------------------------------------------|
G|---------------------------12-12--------------12-12-12-11-11-11-9~-9h11p9--|
D|----------------------------------12-12-14-14------------------------------|
A|---------------------------------------------------------------------------|
E|---------------------------------------------------------------------------|


Here's a good, fun song to add a bit of cheese to your youth group :) never a bad thing 
my opinion :P


************************************

| /   slide up
| \   slide down
| h   hammer-on
| p   pull-off
| ~   vibrato
| +   harmonic
| x   Mute note
| b   Bend
| pb  Pre-bend
| br  Bend release
| pbr Pre-bend release
| brb Bend release bend

************************************
            

comments powered by Disqus
↑ Back to top | Audacious Tabs for Set My Feet. Lyrics for acoustic guitar and electric guitar. Tablatures and chords are parodies/interpretations of the original songs. You may use it for private study, scholarship, research or language learning purposes only