» » »

Audacious, On Fire Tabs (ver.1)

Artists:  A B C D E F G H I J K L M N O P Q R S T U V W X Y Z # 

On Fire Tabs (ver.1)

Audacious Tabs
 Rating:
4/5 (4 votes)
On Fire lessons Tabs too difficult? Try these video lessons and learn fast
                -------------------------------------------------------------------------------
-------------------------------------------------------------------------------

Tuning: Drop D

Intro (main riff)
e|-------------------------------------------------------------------------|
B|-------------------------------------------------------------------------|
G|-------------------------------------------------------------------------|
D|------------------2--2--------2-4--4----------1--1-----------------------|
A|-2-4--4---------4---------------------------4----------------------------|
D|---------4-4-4----------4-4-4---------4-4-4---------4-4-4----------------|

Verse (x2)
   D                 Bm
e|-----------------|------------------|
B|-----------------|------------------|
G|-7-------7---7-7-|-4-------44444444-|
D|-7-------7---7-7-|-4-------44444444-|
A|-5-------5---5-5-|-2-------22222222-|
D|-----------------|------------------|

e|-------------------------------------------------------------------------|
B|-------------------------------------------------------------------------|
G|-------------------------------------------------------------------------|
D|------------------2--2--------2-4--4----------1--1-----------------------|
A|-2-4--4---------4---------------------------4----------------------------|
D|---------4-4-4----------4-4-4---------4-4-4---------4-4-4----------------|

Pre Chorus
   D                 Bm                D                 D#
e|-----------------|-----------------|-----------------|-------------------|
B|-----------------|-----------------|-----------------|-------------------|
G|-7-----x-x-7-7-7-|-4-----x-x-4-4-4-|-7-----x-x-7-7-7-|-8-----8--88888888-|
D|-7-----x-x-7-7-7-|-4-----x-x-4-4-4-|-7-----x-x-7-7-7-|-8-----8--88888888-|
A|-5-----x-x-5-5-5-|-2-----x-x-2-2-2-|-5-----x-x-5-5-5-|-6-----6--66666666-|
D|-----------------|-----------------|-----------------|-------------------|

The D# sounds a bit dodgy but it works. If you've got two guitars playing you can always 
it up by having the second guitar play a B again.

Chorus    (my life, on fire...)
   F#m           D             Bm                       A
e|---------------------------|----------------------------|
B|---------------------------|----------------------------|
G|---------------7---7-7-7-7-|-2---2-2-2-2-2-2-2-2-2-2--4-|
D|-4---4-4-4-4-4-7---7-7-7-7-|-2---2-2-2-2-2-2-2-2-2-2--4-| x2
A|-4---4-4-4-4-4-5---5-5-5-5-|-0---0-0-0-0-0-0-0-0-0-0--2-|
D|-4---4-4-4-4-4-------------|----------------------------|
   Bm (never gonna let fear...)D
e|---------------------------|-------------------------|
B|---------------------------|-------------------------|
G|-4-----4-4-4-4-4-4-4-4-4-4-|-7-----7-7-7-7-7-7-7-7-7-|
D|-4-----4-4-4-4-4-4-4-4-4-4-|-7-----7-7-7-7-7-7-7-7-7-|
A|-2-----2-2-2-2-2-2-2-2-2-2-|-5-----5-5-5-5-5-5-5-5-5-|
D|---------------------------|-------------------------|

Bridge (never gonna let fear take hold of me, gonna lift you higher)

e|------------------------------------------------------------|
B|------------------------------------------------------------|
G|------------------------------------------------------------|
D|-4-4--4--4-4---4-4--4--4-4---4-4--4--4-4--------------------|
A|-4-4--4--4-4---4-4--4--4-4---4-4--4--4-4----4-2-0---4-2-0---|
D|-4-4--4--4-4---4-4--4--4-4---4-4--4--4-4----------4-------4-|

It's a pretty easy song, the tricky part is if you want to add a solo like they do live.
As it's not on the album, the best I can do is suggest that you improvise a solo over 
chords to the chorus, thats what Matt Hill and the rest of the band do onstage :)

Feel free to email if you've got any questions

Have fun !..!, <-.->

************************************

| /   slide up
| \   slide down
| h   hammer-on
| p   pull-off
| ~   vibrato
| +   harmonic
| x   Mute note
| b   Bend
| pb  Pre-bend
| br  Bend release
| pbr Pre-bend release
| brb Bend release bend

************************************
            
Submit corrections

comments powered by Disqus
↑ Back to top | Audacious Tabs for On Fire. Lyrics for acoustic guitar and electric guitar. Tablatures and chords are parodies/interpretations of the original songs. You may use it for private study, scholarship, research or language learning purposes only