» » »

Not Ashamed Tabs (ver.1)

Artists:  A B C D E F G H I J K L M N O P Q R S T U V W X Y Z # 

Not Ashamed Tabs (ver.1)

Audacious
Rating:
3/5 (1 vote)

Hard to play? Try these video lessons and learn fast.
                -------------------------------------------------------------------------------
-------------------------------------------------------------------------------

Tuning: Drop D


Intro Riff
e|--------------------------|--------------------------|
B|--------------------------|--------------------------|
G|-4-2-2---6--7-------------|---------7--9-------------|
D|-4-2-2---6--7--5-5--5-5-5-|-7-5-7---7--9--2-2--2-2-2-|
A|-2-0-2---4--5--5-5--5-5-5-|-7-5-7---5--7--2-2--2-2-2-|
E|---------------5-5--5-5-5-|-7-5-7---------2-2--2-2-2-|


Verse
   G                 D (Fill 1)
e|-----------------|--------------------------------|
B|-----------------|--------------------------------|
G|-----------------|-11--11-11-11---9-9--11-9--7----|
D|-7---------------|-11--11-11-11---9-9--11-9--7-x2-|
A|-5---------------|-9---9--9--9----7-7--9--7--5----|
E|-5---------------|--------------------------------|

   G                 D
e|-----------------|---------------------------------|
B|-----------------|-7-7-7-7-7-7-7-7-----------------|
G|-----------------|-6-6-6-6-6-6-6-6-9-9-9-9-9-9-9-9-|
D|-7---------------|-4-4-4-4-4-4-4-4-9-9-9-9-9-9-9-9-|
A|-5---------------|-----------------7-7-7-7-7-7-7-7-|
E|-5---------------|---------------------------------|


Chorus
          D                        G
I'm not ashamed of everything you are
          A                          Bm
I'm not afraid to sing of all you've done
              F#      G
Your power at work in me
               A       D
Your light for all to see
            G               A              D   (Fill 1)
Lord I will praise no other name, I'm not ashamed


Bridge
e|--------------------------|--------------------------|
B|--------------------------|--------------------------|
G|-4-2-2---6--7-------------|---------7--9-------------|
D|-4-2-2---6--7--5-5--5-5-5-|-7-5-7---7--9--2-2--2-2-2-|
A|-2-0-2---4--5--5-5--5-5-5-|-7-5-7---5--7--2-2--2-2-2-|
E|---------------5-5--5-5-5-|-7-5-7---------2-2--2-2-2-|


Not sure of all of the minors as my mind has gone totally blank for D... But for power
chords, it's fine :) The only bit that may not be totally accurate is the E - F' on "your
light for all to see" as I couldn't quite make out the chords. Let me know if you can 
correct it :)

Have fun playing, can't wait to hear this one at the conference in a few days!! :D

************************************

| /   slide up
| \   slide down
| h   hammer-on
| p   pull-off
| ~   vibrato
| +   harmonic
| x   Mute note
| b   Bend
| pb  Pre-bend
| br  Bend release
| pbr Pre-bend release
| brb Bend release bend

************************************
            
Hard to play? Try these video lessons and learn fast. | Correct




comments powered by Disqus
↑ Back to top | Tablatures and chords are parodies/interpretations of the original songs. You may use it for private study, scholarship, research or language learning purposes only