» » »

Audacious, Made Alive Tabs (ver.1)

Artists:  A B C D E F G H I J K L M N O P Q R S T U V W X Y Z # 

Made Alive Tabs (ver.1)

Audacious Tabs
 Rating:
4/5 (4 votes)
Made Alive lessons Tabs too difficult? Try these video lessons and learn fast
                -------------------------------------------------------------------------------
-------------------------------------------------------------------------------

Tuning: Standard

Intro
   B    C#   D    F#       B    C#   D     D      C#
e|-----------------------|----------------------------|
B|-----------------------|----------------------------|
G|-4-4--6-6--7-7--11-11~-|-4-4--6-6--7-7---7-7--7-6-6-|
D|-4-4--6-6--7-7--11-11~-|-4-4--6-6--7-7---7-7--7-6-6-|
A|-2-2--4-4--5-5--9--9~~-|-2-2--4-4--5-5---5-5--5-4-4-|
E|-----------------------|----------------------------|

Verse
                       B C# D                       B C# D
I'm gonna raise my voice,    I'm gonna give my heart
                         B C# D             F#    G  F#   E
I'm gonna sing your praise,     you are the light in the dark
                 B C# D                          B C# D           
As we lift you up,      take your rightful place
            B      C#  D          A
Seated on a throne of praise, you are


PreChorus
E       G
My God, rich in mercy
E          G   
Because of your great love


Chorus
D                  A
I am made alive in Christ
           Bm     G                 Bm     A      
I'm seated in the highest, with the God of grace
D                    A
Jesus let your glory rise up
       Bm      G                 Bm      A
As we give our lives to see your kingdom come

Repeat Verse + PreChorus + Chorus


Bridge
B       C#      D      B          C#         D
My God, rich in mercy, because of your great love

   A  B        B   C#       C#  D        C#  D
e|-------------------------------------------------|
B|-------------------------------------------------|
G|-2--4-4-4----4-/-6-6-6----6---7-7-7----6---7-7-7-|
D|-2--4-4-4----4-/-6-6-6----6---7-7-7----6---7-7-7-|
A|-0--2-2-2----2-/-4-4-4----4-/-5-5-5----4-/-5-5-5-|
E|-------------------------------------------------|


Instrumental/Solo (Chords = D  A  Bm   G  A  Bm)
This is to the vocal melody of the second half of the chorus
e|-------------------------------------|------------------------------|
B|-15b17-----15--15b17r15--13--15------|--15--15b17r15-13--15b17--13~-|
G|-------14~-----------------------14~-|------------------------------|
D|-------------------------------------|------------------------------|
A|-------------------------------------|------------------------------|
E|-------------------------------------|------------------------------|

e|-------------------------|
B|-15--17--17b20~r17--15~~-|
G|-------------------------|
D|-------------------------|
A|-------------------------|
E|-------------------------|


Last Chorus/Tag
Bm                    A
Jesus, let your glory rise up
       D        G                 Bm      A
As we give our lives to, see your kingdom come


Outro
   B    C#   D    F#       B    C#   D     D      C#
e|-----------------------|----------------------------|
B|-----------------------|----------------------------|
G|-4-4--6-6--7-7--11-11~-|-4-4--6-6--7-7---7-7--7-6-6-|
D|-4-4--6-6--7-7--11-11~-|-4-4--6-6--7-7---7-7--7-6-6-|
A|-2-2--4-4--5-5--9--9~~-|-2-2--4-4--5-5---5-5--5-4-4-|
E|-----------------------|----------------------------|


What a song! Love this one, in my opinion its one of  the best they've produced 
and its awesome fun to play too :)


************************************

| /   slide up
| \   slide down
| h   hammer-on
| p   pull-off
| ~   vibrato
| +   harmonic
| x   Mute note
| b   Bend
| pb  Pre-bend
| br  Bend release
| pbr Pre-bend release
| brb Bend release bend

************************************
            
Submit corrections

comments powered by Disqus
↑ Back to top | Audacious Tabs for Made Alive. Lyrics for acoustic guitar and electric guitar. Tablatures and chords are parodies/interpretations of the original songs. You may use it for private study, scholarship, research or language learning purposes only