» » »

Audacious, Love The Way Tabs (ver.1)

Artists:  A B C D E F G H I J K L M N O P Q R S T U V W X Y Z # 

Love The Way Tabs (ver.1)

Audacious Tabs
Rating:
0/5 (0 votes)
Love The Way lessons Tabs too difficult? Try these video lessons and learn fast
                -------------------------------------------------------------------------------
-------------------------------------------------------------------------------

Tuning: Standard

Intro/Main Riff
   C#m           A      E             G#m
e|------------------|-------------------|
B|-7--9-------7--9--|---5--7----4--5--4-|
G|---------9--------|-------------------|
D|------------------|-------------------|  x4
A|------------------|-------------------|
E|------------------|-------------------|

Verse
         A    E                    B     E
Break my heart with what breaks yours
         A    E              B
Renew my mind, I'll be transformed

PreChorus
D               A
Take my spirit, make me new
E               B
Take my heart I live for you

Chorus
          A    E            C#m    B
I want to love, the way you love
          A                E                 B
I want to live the life of praise that you deserve
  F#m            C#m             B           E
I take my cross, deny myself and follow after you
          A   B              C#m    A     E     G#m
I want to love the way you love     (intro)

e|------------------|-------------------|
B|-7--9-------7--9--|---5--7----4--5--4-|
G|---------9--------|-------------------|
D|------------------|-------------------|
A|------------------|-------------------|
E|------------------|-------------------|

Verse 2
         A     E           B     E
Clean my hands, purify my heart
          A     E           B
Renew my spirit, you set me apart

PreChorus
D               A
Take my spirit, make me new
E               B
Take my heart I live for you

Chorus
          A    E            C#m    B
I want to love, the way you love
          A                E                 B
I want to live the life of praise that you deserve
  F#m            C#m             B           E
I take my cross, deny myself and follow after you
          A   B              C#m    A     E     G#m
I want to love the way you love     (intro)

e|------------------|-------------------|
B|-7--9-------7--9--|---5--7----4--5--4-|
G|---------9--------|-------------------|
D|------------------|-------------------|
A|------------------|-------------------|
E|------------------|-------------------|


It's not the most difficult song to play but there are some funny rhythms to get your head around


************************************

| /   slide up
| \   slide down
| h   hammer-on
| p   pull-off
| ~   vibrato
| +   harmonic
| x   Mute note
| b   Bend
| pb  Pre-bend
| br  Bend release
| pbr Pre-bend release
| brb Bend release bend

************************************
            
Submit corrections

comments powered by Disqus
↑ Back to top | Audacious Tabs for Love The Way. Lyrics for acoustic guitar and electric guitar. Tablatures and chords are parodies/interpretations of the original songs. You may use it for private study, scholarship, research or language learning purposes only