» » »

Found My Freedom Tabs (ver.1)

Artists:  A B C D E F G H I J K L M N O P Q R S T U V W X Y Z # 

Found My Freedom Tabs (ver.1)

Audacious
Rating:
0/5 (0 votes)

Hard to play? Try these video lessons and learn fast.
                -------------------------------------------------------------------------------
-------------------------------------------------------------------------------

Tuning: Standard

Intro/Main Riff (Chords = E G#m B)
e|-----------------|------------------------------|
B|-11h12p11--------|--11h12p11--------------------|
G|----------11-----|-----------11----------11-----|
D|-------------13~-|--------------13~--11------13-| x4
A|-----------------|------------------------------|
E|-----------------|------------------------------|

Verse
         E                G#m       B
Found my freedom, in your name
         E                      G#m        B
Found my reason, livin' to your praise

(The bit where he sounds like he's playing a little riff in the verse, either palm mute 
i think he plays the E, G#m and B to make a riff)

PreChorus
         E
There is hope beyond all reason
         F#
There is strength beyond this world
         G#m
There is grace beyond all measure
       A
In the name above all names

e|-----------------|------------------------------|
B|-11h12p11--------|--11h12p11--------------------|
G|----------11-----|-----------11----------11-----|
D|-------------13~-|--------------13~--11------13-| x4
A|-----------------|------------------------------|
E|-----------------|------------------------------|


Repeat verse and prechorus

Chorus
E      B            F#
Jesus, ruler of the nations
            G#m  A
Hope of all creation
               C#m
Saviour of the world
E       B                 F#
Jesus, you came down from heaven
       G#m    A
Made a way to freedom
                  C#m
Life for all it's worth
Saviour of the world

Instrumental/Solo (Chords are same as intro)
e|-----------------|------------------------------|
B|-11h12p11--------|--11h12p11--------------------|
G|----------11-----|-----------11----------11-----|
D|-------------13~-|--------------13~--11------13-| x4
A|-----------------|------------------------------|
E|-----------------|------------------------------|


Other than the weird riff bit in the verse this is another one that's pretty easy. The 
riff takes a bit of getting used to but that's probably just me :)


************************************

| /   slide up
| \   slide down
| h   hammer-on
| p   pull-off
| ~   vibrato
| +   harmonic
| x   Mute note
| b   Bend
| pb  Pre-bend
| br  Bend release
| pbr Pre-bend release
| brb Bend release bend

************************************
            
Hard to play? Try these video lessons and learn fast. | Correct




comments powered by Disqus
↑ Back to top | Tablatures and chords are parodies/interpretations of the original songs. You may use it for private study, scholarship, research or language learning purposes only