» » »

Everything Within Me Tabs (ver.1)

Artists:  A B C D E F G H I J K L M N O P Q R S T U V W X Y Z # 

Everything Within Me Tabs (ver.1)

Audacious
Rating:
2/5 (1 vote)

Hard to play? Try these video lessons and learn fast.
                -------------------------------------------------------------------------------
-------------------------------------------------------------------------------

Tuning: Standard (EADGBE)
Intro/Verse
   E
e|------------------------------------------------|
B|-------0-----------0-----------0-----------0----|
G|----------1-----------1-----------1-----------1-|
D|----2-----------2-----------2-----------2-------|
A|------------------------------------------------|
E|-0-----------0-----------0-----------0----------|

   B        C#m              A                              E
e|-------2-----------------|-------0--------------------4-|----------------|
B|-------------------------|----------2-----4---5---------|----------------|
G|----4-----5---4----------|--------------2-4---6----6----|----------------|
D|------------------4---6--|----2-------------------------|-4-4-4-4h6p4\2-2|
A|-2-----------------------|-0----------------------------|----------------|
E|-------------------------|------------------------------|----------------|

I can quite confidently say that this is correct, it just might take a bit of time to 
the rhythm right and you will have to listen to the CD. I'll try and get it on Guitar Pro 
:)

Pre Chorus
A
This is Christ in me
            C#m      B
The hope of glory


Chorus
     E              B
I am yours, you are mine
            C#m        A                 E
I'm in your hands that stand the test of time
     E     C#m     B
I am safe, in your arms
        C#m       A                 E
Eternal love that spans the rest of time


Instrumental/Solo
(Play chorus chords behind the solo)
e|------------------------------------------|------------------------------|
B|------------------------------------------|------9-10--9-----------------|
G|------------------------------------------|-9-11----------11--9----------|
D|------------------------------------------|----------------------9-/-11--|
A|----------------9-11-12--11--9------------|------------------------------|
E|-12-12-12-12-12-----------------12--/--14-|------------------------------|

e|-12-14-16--17--16--14---12-----------------------------------------------|
B|----------------------------\--12----------------------------------------|
G|-------------------------------------------------------------------------|
D|-------------------------------------------------------------------------|
A|-------------------------------------------------------------------------|
E|-------------------------------------------------------------------------|

Another amazing song by Audacious, fantastic to play with a full band but also sounds 
on an acoustic. Anyone who was at Audacious 2009, make sure the intro stays in time! ;)


************************************

| /   slide up
| \   slide down
| h   hammer-on
| p   pull-off
| ~   vibrato
| +   harmonic
| x   Mute note
| b   Bend
| pb  Pre-bend
| br  Bend release
| pbr Pre-bend release
| brb Bend release bend

************************************
            
Hard to play? Try these video lessons and learn fast. | Correct




comments powered by Disqus
↑ Back to top | Tablatures and chords are parodies/interpretations of the original songs. You may use it for private study, scholarship, research or language learning purposes only