» » »

Audacious, Bounce Tabs (ver.1)

Artists:  A B C D E F G H I J K L M N O P Q R S T U V W X Y Z # 

Bounce Tabs (ver.1)

Audacious Tabs
 Rating:
4/5 (4 votes)
Bounce lessons Tabs too difficult? Try these video lessons and learn fast
                -------------------------------------------------------------------------------
-------------------------------------------------------------------------------

Tuning: Standard

Intro/Main Riff
e|---------------------|--------------------|
B|---------------------|--------------------|
G|---------------------|--------------------|
D|---------------------|-----------------3~-|
A|-3h5-3h5-3h5-3h5-xxxx|-3h5-3h5-3h5-3h5----|
E|---------------------|--------------------|

e|----------------------|-----------------------|
B|----------------------|-----------------------|
G|----------------------|-----------------------|
D|----------------------|-----------------------|
A|-3h5-3h5-3h5-3h5-xxxx-|-3h5-3h5-----------0h3-|
E|----------------------|----------1--3--4------|


Verse                                        (come on everybody)
   A    C   D   F   G   A    C   D   F   G    G F G A G F
e|--------------------|------------------------------------|
B|--------------------|------------------------------------|
G|-2-xx-5-/-7---------|-2-xx-5-/-7-------------------------|
D|-2-xx-5-/-7---3-/-5-|-2-xx-5-/-7---3-/-5-----------------| x2
A|-0-xx-3-/-5---3-/-5-|-0-xx-3-/-5---3-/-5----------0------|
E|--------------1-/-3-|--------------1-/-3----3-1-3---3-1~-|


PreChorus
   G                 Bb      C
e|-----------------|-----------------|
B|-----------------|-----------------|
G|-----------------|-3-----/-5-------|
D|-5---------------|-3-----/-5-------|
A|-5---------------|-1-----/-3-------|
E|-3---------------|-----------------|


Chorus
e|---------------------|---------------------|
B|---------------------|---------------------|
G|---------------------|---------------------|
D|---------------------|-----------------3~--|
A|-3h5-3h5-3h5-3h5-xxxx|-3h5-3h5-3h5-3h5-----|
E|---------------------|---------------------|
                                    (its time to)
e|---------------------|---------------------|
B|---------------------|---------------------|
G|---------------------|---------------------|
D|---------------------|---------------------|
A|-3h5-3h5-3h5-3h5-xxxx|-3h5-3h5-3h5---------|
E|---------------------|--------------5--4--3|


Bridge
e|----------------------|----------------------|
B|----------------------|----------------------|
G|----------------------|----------------------|
D|----------------------|----------------------| x4
A|-3h5-3h5-3h5-3h5-xxxx-|-3h5-3h5-3h5-3h5-xxxx-|
E|----------------------|----------------------|

(lead solo bit over the top of the bridge)
e|--------------|
B|-13--15-------|
G|---------14~~-|
D|--------------|
A|--------------|
E|--------------|

Tag (bounce, everybody bounce...)
Repeat intro 


Good bouncy song :P



************************************

| /   slide up
| \   slide down
| h   hammer-on
| p   pull-off
| ~   vibrato
| +   harmonic
| x   Mute note
| b   Bend
| pb  Pre-bend
| br  Bend release
| pbr Pre-bend release
| brb Bend release bend

************************************
            
Submit corrections

comments powered by Disqus
↑ Back to top | Audacious Tabs for Bounce. Lyrics for acoustic guitar and electric guitar. Tablatures and chords are parodies/interpretations of the original songs. You may use it for private study, scholarship, research or language learning purposes only