» » »

At The Drive-In, Winter Month Novelty Tabs (ver.1)

Artists:  A B C D E F G H I J K L M N O P Q R S T U V W X Y Z # 

Winter Month Novelty Tabs (ver.1)

At The Drive-In Tabs
 Rating:
4/5 (4 votes)
Winter Month Novelty lessons Tabs too difficult? Try these video lessons and learn fast
1
                Intro: 

gtr1: (palm mute)
e|-------------------------------------
b|-------0-----0---0-----0-----0---0---
g|-------4-----4---4-----4-----4---4---
d|-------------------------------------
a|---3-3---2b3---3---3-3---3-3---3-----
e|-------------------------------------

gtr2:
e|---3^^^^------------3------------------------------------
b|---------------------3-----------------------------------
g|------------5-x-4-----4-----5-x-5------------------------
d|------------5-x-5-------5---5-x-5-----2-2-2--x-2---0h2---
a|------------3-x-3-----------3-x-3-----2-2-2--x-2---0h2---
e|--------------------------------------0-0-0--x-0---0-----
                                    pm  .....
Verse:
e|-------------------------------------------5-5-7-7-7-5-5---
b|-----------------------------------------------------------
g|---6-6-6-6h7-7-7-7-7-6-6-6-6h7-7-7-7-6---------------------
d|---------------------------------------7-7-----------------
a|-----------------------------------------------------------
e|-----------------------------------------------------------

Chorus:
 gtr1:
e|-------0---0-------0---0-------0---0-------0---0-----
b|-----3---3---3---3---3---3---3---3---3---3---3---3---
g|---4-----------4-----------2-------------------------
d|---4-----------4-----------2-----------5-------------
a|---2-----------2-----------0-----------5-------------
e|---------------------------------------3-------------

  gtr2:
e|--------------------------19----19----19------
b|---12--10-12--10-12-10///////19----19----19---
g|----------------------------------------------
d|----------------------------------------------
a|----------------------------------------------
e|----------------------------------------------

Pre-verse:
e|---------------0---
b|-------------3-----
g|---5-----5---------
d|---5-------5-------
a|---3--3------------
e|-------------------

End:
e|--------------------
b|--------------------
g|---9-9-9-12-12-12---
d|--------------------
a|---7-7-7-10-10-10---
e|--------------------
            
Submit corrections

comments powered by Disqus
↑ Back to top | At The Drive-In Tabs for Winter Month Novelty. Lyrics for acoustic guitar and electric guitar. 1 Tablatures and chords are parodies/interpretations of the original songs. You may use it for private study, scholarship, research or language learning purposes only