>
 >
Ursa Minor

Ursa Minor Guitar Tabs

At The Drive-In - Ursa Minor chords, tabs, tablatures, lyrics

Guitar lessons | Add/correct | Request | Top 50 tabs Artists:  A B C D E F G H I J K L M N O P Q R S T U V W X Y Z 0-9

Ursa Minor Guitar Tabs – At The Drive-In

CD, Sheet music, Poster

Do you like Ursa Minor? Share with your friends now
Tabs
(1.1)guitar one...bassy sound 
e|----------------------------------------------------------------------------|
b|----------------------------------------------------------------------------|
g|----------------------------------------------------------------------------|
d|----------------------------------------------------------------------------|
a|----------------3---7--7-5--------------------------------------------------|
E|--0-5-0-----5--------7------------------------------------------------------|

(1.1)guitar two...played w/ guit 1
e|----------------------------------------------------------------------------|
b|----------------------------------------------------------------------------|
g|----------------------------------------------------------------------------|
d|----------------------------------------------------------------------------|
a|---3----3-5--5----15---14---12----------------------------------------------|
E|----------------------------------------------------------------------------|

(2.1) guitar 1 w/ rythem
e|----------------------------------------------------------------------------|
b|--9-------------------------------------------------------------------------|
g|--7-------------------------------------------------------------------------|
d|--6-------------------------------------------------------------------------|
a|----------------------------------------------------------------------------|
E|----------------------------------------------------------------------------|

(2.1)guitar 2
e|-------4--------------------------------------------------------------------|
b|-------3--------------------------------------------------------------------|
g|----------------------------------------------------------------------------|
d|----------------------------------------------------------------------------|
a|----------------------------------------------------------------------------|
E|----------------------------------------------------------------------------|

then synthesizer or somthin...i tabbed it for guitar
e|----------------------------------------------------------------------------|
b|----------------------------------------------------------------------------|
g|----------------------------------------------------------------------------|
d|----------------------------------------------------------------------------|
a|----------------------------------------------------------------------------|
E|-5-4-2-0--bend down w/ wammy bar--------------------------------------------|

to (3.1) guitar 1
e|----------------------------------------------------------------------------|
b|----------------------------------------------------------------------------|
g|-------10---12---11-5-------------------------------------------------------|
d|----7--10---12---11-5-------------------------------------------------------|
a|----7--8----10---9--3-------------------------------------------------------|
E|----5-----------------------------------------------------------------------|

(3.1) guitar 2 ...i know it sounds weird but when played w/ the guitar 1
part its a harmonic, so it works...trust me, i MAY be right
e|--14-15------------10-------------------------------------------------------|
b|------------then------------------------------------------------------------|
g|--11-12------------7--------------------------------------------------------|
d|----------------------------------------------------------------------------|
a|----------------------------------------------------------------------------|
E|----------------------------------------------------------------------------|

then back to (2.1) w/ an extension

then (3.1)

then (4.1) guitar 1 ...plam muted towards the end
e|----------------------------------------------------------------------------|
b|----------------------------------------------------------------------------|
g|-------9-7-6-----9-7-6-6p7p6------9-7-6--------6---6-6----6-----------------|
d|--7-7---------7--------------7-7-----------7-7---7---7--7-------------------|
a|----------------------------------------------------------------------------|
E|----------------------------------------------------------------------------|


(4.1) guitar 2
e|----------------------------------------------------------------------------|
b|----------------------------------------------------------------------------|
g|----------------------------------------------------------------------------|
d|----------------------------------------------------------------------------|
a|---4-4-5-5-0-4-5--7--9------------------------------------------------------|
E|----------------------------------------------------------------------------|

then (2.1) x4 w/ another extension (2.2)

(2.2)guitar 1... a bunch, with a pick slide at the end of the riff to lead to the next part
e|----------------------------------------------------------------------------|
b|-9--------------------------------------------------------------------------|
g|-7--------------------------------------------------------------------------|
d|-6--------------------------------------------------------------------------|
a|----------------------------------------------------------------------------|
E|----------------------------------------------------------------------------|

(2.2) guitar 2 normal part x2, but then it plays two octaves so its
e|----------------------------------------------8---12----12--10--------------|
b|------------------------------------------10--------12----------------------|
g|-----------------------5----9---9--7----------------------------------------|
d|---------------------7--------9---------------------------------------------|
a|-----3---7--7-5-------------------------------------------------------------|
E|---5------7-----------------------------------------------------------------|

leading upto....(3.1) x2

and (2.1) cut short-





Comments


Popular At The Drive-In tabs & chords
198d Bass Tabs
A Devil Among The Tailors Tabs
Catacombs 1 Tabs
Cosmonaut 2 Tabs
Hourglass Tabs
Lopsided Tabs
Lopsided 2 Tabs
Mannequin Republic 1 Tabs
Shaking Hand Incision 1 Tabs
Ebroglio Ukulele


Song lyrics



↑ Back to top | Tablatures and chords are parodies/interpretations of the original songs. You may use it for private study, scholarship, research or language learning purposes only
© 2014 AZChords.com Contact us | Privacy policy | DMCA | Add/correct tabs | Request tabs | Top 50 tabs