» » »

At The Drive-In, Sleepwalk Capsules Bass tabs (ver.1)

Artists:  A B C D E F G H I J K L M N O P Q R S T U V W X Y Z # 

Sleepwalk Capsules Bass tabs (ver.1)

At The Drive-In Tabs
 Rating:
4/5 (4 votes)
Sleepwalk Capsules  lessons Tabs too difficult? Try these video lessons and learn fast
1
                (1)
Standard Tuning

Verse: 4x
G|----------------------------------------------------|
D|----------------------------2-2-2-2-7-7-7-7-5-5-5-5-|
A|-3-3--3-3-------------------------------------------|
E|----------3-3--3-3--5-5-5-5-------------------------|

Chorus:2x
G|-------------------------------------------------------------|
D|---------------------------5---------------------------------|
A|-----------------5-5-5-3-5---5-3-3-3-3-3-3-3-3-3-3-3-3-5-3-5-|
E|-0-0-0-0-0-0-0-0---------------------------------------------|

Verse:4x
Chorus: 4x

Breakdown:8x
G|----2-2-0-2---------------|
D|--------------2-2---------|
A|-0------------------------|
E|------------0-----3---0-3-|

Other Part: 1x
G|--------------------|
D|--------------------|
A|--------------------|
E|-6-5-3-6--2-6-5-3-9-|

Chorus: 6x
There you go.
            
Submit corrections

comments powered by Disqus
↑ Back to top | At The Drive-In Bass for Sleepwalk Capsules. Lyrics for acoustic guitar and electric guitar. 1 Tablatures and chords are parodies/interpretations of the original songs. You may use it for private study, scholarship, research or language learning purposes only