» » »

At The Drive-In, Schaffino Tabs (ver.1)

Artists:  A B C D E F G H I J K L M N O P Q R S T U V W X Y Z # 

Schaffino Tabs (ver.1)

At The Drive-In Tabs
 Rating:
4/5 (4 votes)
Schaffino lessons Tabs too difficult? Try these video lessons and learn fast
                Intro Riff

e:-----0--------0--------0-----0----|
b:-----0--------0--------0-----0-0--|
g:---6------9-9-9------14----13-----|

 strum each of the chords below once each for the intro... then
 just plain strumming..

 E | E | Cm7 | Cm7 | D5 | D5 | A | A |

____________________
Verse

 just strum E.. not open E chord but the one at the 7th fret....

 one small bit played....
 b:---12--10--9-----|
 g:--------------9--|


 then...
 E | Cm7 | D5 | A |

_____________________
chorus

e:------------------------------------------------------|
b:------------------------------------------------------|
g:---111111111111-11-11-----------------------6---------|
d:---111111111111-11-11---12--12----12--12----7--strum--|
a:---9-9-9-9-9-9--9--9----12--12----12--12----7---------|
E:------------------------10--10----10--10----5---------|

_______________________
other bit...
	gu1 palm muted... slowey move from this to playing
	the same notes but in octave solo jobbies
     e:--------------------------|
     b:--------------------------|
 gu1 g:--------------------------|
     d:--------------------------|
     a:--5-5-5-------------------|
     E:--------5-5-5-3-3-3-2-2-2-|

     e:--------------------------|
     b:--------------------0-----|
 gu2 g:--0-----------4-----0-----|
     d:--4-----0-----5-----4-----|
     a:--5-----4-----------5-----|
     E:--------5-----------------|


AT THE DRIVE-IN FOREVER!!!!!!!!
            
Submit corrections

comments powered by Disqus
↑ Back to top | At The Drive-In Tabs for Schaffino. Lyrics for acoustic guitar and electric guitar. Tablatures and chords are parodies/interpretations of the original songs. You may use it for private study, scholarship, research or language learning purposes only