>
 >
Porfirio Diaz

Porfirio Diaz Guitar Tabs

At The Drive-In - Porfirio Diaz chords, tabs, tablatures, lyrics

Guitar lessons | Add/correct | Request | Top 50 tabs Artists:  A B C D E F G H I J K L M N O P Q R S T U V W X Y Z 0-9

Porfirio Diaz Guitar Tabs – At The Drive-In

CD, Sheet music, Poster

Do you like Porfirio Diaz? Share with your friends now
Tabs
at the drive-in - Porfirio Diaz


 Left Guitar-Intro/Verse One
e|--------|
B|-0---0--|
G|-3-0-6--|
D|-0-0----|
A|-2-0-6--|
E|--------|

 Right Guitar-Intro/Verse One
e|--------| 
B|-----0--| 
G|-8-5-6--|just play that first chord for the intro.
D|-0-0-5--|
A|-7-4-6--|
E|-8-5----|

 Left-Verse Two
e|----------|
B|----------|
G|-9-9-9-11-|
D|----------|
A|-7-7-7--9-|
E|---7-8-10-|

 Right-Verse Two
e|-------------|
B|-17-17-17-17-|
G|--0--0--0--0-|
D|-14----14-14-|
A|----14-15-17-|
E|-------------|

 Left-Verse Three
e|-----------------|
B|-8-7-7-5-8-7-----|
G|-------------2---|
D|-------------4-2-|
A|-7-6-5-4-7-6-5-4-|
E|---------------5-|
 
 Right-Verse Three
e|----------|
B|----------|
G|-9--------|
D|-9-9-12-7-|
A|-7-9-12-7-|
E|---7-10-5-|

 Left-Verse Four
e|---------|------------|
B|-5----6--|------------|
G|---------|-----4-4-2--| 
D|-2----3--|-3-1-2-2-1--|
A|-3----4--|-5---3-2-3--|
E|---------|-3-2--------|
 
 Right-Verse Four
e|---------|------------|
B|---------|------------|
G|-4----2--|-----4-4-2--|
D|-2----2--|-5-1-2-4-1--|
A|-3----3--|-5---3-2-3--|
E|---------|-3-2--------|

 Left-Breakdown
e|---------------------|---------------|--last--|
B|-----play twice------|-------(12-10)-|--time--|
G|---------------------|-9--9--(-----)-|-9------|
D|-6---6---6---6---6---|-9--9--(-9--7)-|-9--7---|
A|-7---7---7---7---7---|---------------|----7---|
E|-4p0-4p0-4p0-5p0-4p0-|-8--7----------|-8--5---|

 Right-Breakdown
e|---------------------|---------------|--last--|
B|-----play twice------|---------------|--time--|
G|---------------------|-4-------------|-4--2---|
D|-6---6---6---6---6---|-5-------------|-5--2---|
A|-7---7---7---7---7---|-3-------------|-3--0---|
E|-4p0-4p0-4p0-5p0-4p0-|---------------|--------|

 Left-Verse Five
e|----------------------------|
B|----------------------------|
G|---------7------------------|
D|-9-7-9-5-7--xx--xx--xx-xx-1-|
A|-9-7-9-5-5--xx5-xx2-xx5xx2--|
E|-7-5-7-3----xx3-xx2-xx3xx22-|

 Right-Verse Five
e|----------------------------|
B|----------------------------|
G|-11-9-11-7-14---------------|
D|--9-7--9-5-12--xxxx........-|
A|---------------xxxx........-|
E|---------------xxxx........-|

the the end is just the intro and verse three. the last chord they 
hold out is the E chord that they are playing.





Comments


Popular At The Drive-In tabs & chords
300 Mhz Bass Tabs
Arc Arsenal Bass Tabs
Embroglio Bass Tabs
Napolean Bass Tabs
Chanbara Tabs
Doormans Placebo Intro Tabs
Pattern Against User 2 Tabs
Rolodex Propaganda Tabs
Winter Month Novelty Tabs
Initiation Ukulele


Song lyrics



↑ Back to top | Tablatures and chords are parodies/interpretations of the original songs. You may use it for private study, scholarship, research or language learning purposes only
© 2014 AZChords.com Contact us | Privacy policy | DMCA | Add/correct tabs | Request tabs | Top 50 tabs