» » »

One Armed Sissor Bass tabs (ver.1)

Artists:  A B C D E F G H I J K L M N O P Q R S T U V W X Y Z # 

One Armed Sissor Bass tabs (ver.1)

At The Drive-In
Rating:
0/5 (0 votes)

Hard to play? Try these video lessons and learn fast.
                
Intro

e-0000-00--0000-00-------------------------------------
a-------------------0--0--0--00------------------------
d-------------------------------77777-55555-44444-22222
g------------------------------------------------------

Main Riff I

e--oooo-oo------------------------
a----------555555---------33333333
d----------------33333333---------
g---------------------------------

Main Riff II

e-55-33-220232---------
a----------------------
d--------------22202520
g----------------------

Outro

e-00000000------------------------
a----------------33333----22222222
d----------555555------5----------
g---------------------------------

sorry i'll give the order later
            
Hard to play? Try these video lessons and learn fast. | Correct




comments powered by Disqus
↑ Back to top | Tablatures and chords are parodies/interpretations of the original songs. You may use it for private study, scholarship, research or language learning purposes only