» » »

At The Drive-In, Onearmedscissor Bass tabs (ver.1)

Artists:  A B C D E F G H I J K L M N O P Q R S T U V W X Y Z # 

Onearmedscissor Bass tabs (ver.1)

At The Drive-In Tabs
 Rating:
4/5 (4 votes)
Onearmedscissor lessons Tabs too difficult? Try these video lessons and learn fast
1
                G--------------------------------------------
	
	D--------------------------------------------

	A--------7--------7---------------------------
	
	E--00000----00000----------------------------


	G----------------------------------------------
	
	D-------------------77777-5555-4444-222-------
	
	A----------------------------------------------   Repeat
	
	E--5---5----5----55----------------------------


          Chorus
	G----------------------------------------------
	
	D----------------------------------------------
	
	A---------7--55555--\12--88888888-------------- Repeat
	
	E---00000-------------------------8888888-------


	G----------------------------------------------
	
	D-------------------77777-5555-4444-222--------
	
	A------------33-------------------------------- Repeat x2
	
	E---55-355-5----5-------------------------------


	G-----------------------------------------------

	D-------------------------------0---------------

	A---------------------------0-2---2-------------- Repeat

	E---55--533-322-22222-0000----------------------

	Chorus  (2nd time 5ths) *first section only

	G-----------------------------------------------

	D------------55555555----------*5555555----------

	A--77777777------------(3333333)-------(2222222)

	E-----------------------------------------------

	Chorus
	G----------------------------|-------------------

	D----------------------------|--------------------
                         Repeat
	A---88888888-----------------|----------7--------

	E------------88888888--------|---00000------------
            
Submit corrections

comments powered by Disqus
↑ Back to top | At The Drive-In Bass for Onearmedscissor. Lyrics for acoustic guitar and electric guitar. 1 Tablatures and chords are parodies/interpretations of the original songs. You may use it for private study, scholarship, research or language learning purposes only