>
 >
Lopsided 2

Lopsided 2 Guitar Tabs

At The Drive-In - Lopsided 2 chords, tabs, tablatures, lyrics

Guitar lessons | Add/correct | Request | Top 50 tabs Artists:  A B C D E F G H I J K L M N O P Q R S T U V W X Y Z 0-9

Lopsided 2 Guitar Tabs – At The Drive-In

CD, Sheet music, Poster

Do you like Lopsided 2? Share with your friends now
Bass TabsTabsTabs v2Tabs v3
At the Drive-In “Lopsided”
Hey everyone.  When I read some of the other Lopsided tabs here, they just didn't sound 
to me.  So when I worked on this song, I'm pretty sure I got the right sound.  If you 
any mistakes, feel free to tell me so I can learn them.
This song is in 3/8, but I could be wrong.

Verse
E---------------------------------|
B---------222-222-222-222---0-0-0-|
G---222---222-222-222-222---9-9-9-|
D---000---000-000-000-000---0-0-0-|
A---xxx---222-222-222-222--101010-|
E---333---------------------------|

E-----------------------|
B-----------------------|
G---222-222-222-222-222-|
D---000-000-000-000-000-|
A---xxx-xxx-xxx-xxx-xxx-|
E---333-333-333-333-333-|

E---------------------------------|
B---------222-222-222-222---0-0-0-|
G---222---222-222-222-222---9-9-9-|
D---000---000-000-000-000---0-0-0-|
A---xxx---222-222-222-222--101010-|
E---333---------------------------|

E-----------------------|
B-----------------------|
G---222-222-222-222-222-|
D---000-000-000-000-000-|
A---xxx-xxx-xxx-xxx-xxx-|
E---333-333-333-333-333-|

E---------------------------------|
B---------222-222-222-222---0-0-0-|
G---222---222-222-222-222---9-9-9-|
D---000---000-000-000-000---0-0-0-|
A---xxx---222-222-222-222--101010-|
E---333---------------------------|

E-----------------------|
B-----------------------|
G---222-222-222-222-222-|
D---000-000-000-000-000-|
A---xxx-xxx-xxx-xxx-xxx-|
E---333-333-333-333-333-|

Chorus
You know when to pause
E------------14-10-----10----------------14-10----10-------10-------|
B---10-10-----------10---10------10------------10----10-------10----|
G--------11-----------------11------11------------------11-------11-|
D--------------------------------------12---------------------------|
A-------------------------------------------------------------------|
E-------------------------------------------------------------------|

E------------14-10-----10----------------14-10----10-------10-------|
B---10-10-----------10---10------10------------10----10-------10----|
G--------11-----------------11------11------------------11-------11-|
D--------------------------------------12---------------------------|
A-------------------------------------------------------------------|
E-------------------------------------------------------------------|

Verse
E---------------------------------|
B---------222-222-222-222---0-0-0-|
G---222---222-222-222-222---9-9-9-|
D---000---000-000-000-000---0-0-0-|
A---xxx---222-222-222-222--101010-|
E---333---------------------------|

E-----------------------|
B-----------------------|
G---222-222-222-222-222-|
D---000-000-000-000-000-|
A---xxx-xxx-xxx-xxx-xxx-|
E---333-333-333-333-333-|

E---------------------------------|
B---------222-222-222-222---0-0-0-|
G---222---222-222-222-222---9-9-9-|
D---000---000-000-000-000---0-0-0-|
A---xxx---222-222-222-222--101010-|
E---333---------------------------|

E-----------------------|
B-----------------------|
G---222-222-222-222-222-|
D---000-000-000-000-000-|
A---xxx-xxx-xxx-xxx-xxx-|
E---333-333-333-333-333-|

E----------------------------------|
B---------222-222-222-222---0-0-0--|
G---222---222-222-222-222---9-9-9--|
D---000---000-000-000-000---0-0-0--|
A---xxx---222-222-222-222--101010--|
E---333----------------------------|

E-----------------------|
B-----------------------|
G---222-222-222-222-222-|
D---000-000-000-000-000-|
A---xxx-xxx-xxx-xxx-xxx-|
E---333-333-333-333-333-|

Chorus
E------------14-10-----10----------------14-10----10-------10-------|
B---10-10-----------10---10------10------------10----10-------10----|
G--------11-----------------11------11------------------11-------11-|
D--------------------------------------12---------------------------|
A-------------------------------------------------------------------|
E-------------------------------------------------------------------|

E------------14-10-----10----------------14-10----10-------10-------|
B---10-10-----------10---10------10------------10----10-------10----|
G--------11-----------------11------11------------------11-------11-|
D--------------------------------------12---------------------------|
A-------------------------------------------------------------------|
E-------------------------------------------------------------------|

E------------14-10-----10----------------14-10----10-------10-------|
B---10-10-----------10---10------10------------10----10-------10----|
G--------11-----------------11------11------------------11-------11-|
D--------------------------------------12---------------------------|
A-------------------------------------------------------------------|
E-------------------------------------------------------------------|

E------------14-10-----10----------------14-10----10-------10-------|
B---10-10-----------10---10------10------------10----10-------10----|
G--------11-----------------11------11------------------11-------11-|
D--------------------------------------12---------------------------|
A-------------------------------------------------------------------|
E-------------------------------------------------------------------|

Bridge
E---------------------------|
B---------------------------|
G---7~----444-444-222-222---|
D---7~--5-444-444-222-222---|
A---5~--5-222-222-000-000---|
E-------3-------------------|  x4

Hold this chord
E----
B----
G----
D---5
A---5
E---3

Chorus
E------------14-10-----10----------------14-10----10-------10-------|
B---10-10-----------10---10------10------------10----10-------10----|
G--------11-----------------11------11------------------11-------11-|
D--------------------------------------12---------------------------|
A-------------------------------------------------------------------|
E-------------------------------------------------------------------|

E------------14-10-----10----------------14-10----10-------10-------|
B---10-10-----------10---10------10------------10----10-------10----|
G--------11-----------------11------11------------------11-------11-|
D--------------------------------------12---------------------------|
A-------------------------------------------------------------------|
E-------------------------------------------------------------------|

E------------14-10-----10----------------14-10----10-------10-------|
B---10-10-----------10---10------10------------10----10-------10----|
G--------11-----------------11------11------------------11-------11-|
D--------------------------------------12---------------------------|
A-------------------------------------------------------------------|
E-------------------------------------------------------------------|

E---10-------14-------10--------14-------|
B------10-------10-------10--------10----|
G---------11-------11-------11--------11-|
D----------------------------------------|
A----------------------------------------|
E----------------------------------------|  x2

Distortion time
E--------------------------------------------|
B--------------------------------------------|
G-4444-4444-4444-7777------------------------|
D-4444-4444-4444-7777-5555-5555-5555-5555----|
A-2222-2222-2222-5555-5555-5555-5555-5555----|
E---------------------3333-3333-3333-3333----|   x8

E------------------------|
B------------------------|
G------------------------|
D---9-------5------------|
A---9-------5------------|
E---7-7-7-7/3-3-3-3-3----|   x4

End on
E----
B----
G----
D---9
A---9
E---7





Comments


Popular At The Drive-In tabs & chords
Arcarsenal Bass Tabs
Incetardis Bass Tabs
Lopsided Bass Tabs
Quarantined 2 Bass Tabs
Shaking Hand Incision Bass Tabs
Doorman's Placebo Tabs
Incetardis Tabs
Invalid Letter Dept. Tabs
Speechless Tabs
Initiation Ukulele


Song lyrics



↑ Back to top | Tablatures and chords are parodies/interpretations of the original songs. You may use it for private study, scholarship, research or language learning purposes only
© 2014 AZChords.com Contact us | Privacy policy | DMCA | Add/correct tabs | Request tabs | Top 50 tabs