» » »

At The Drive-In, Lopsided Tabs (ver.2)

Artists:  A B C D E F G H I J K L M N O P Q R S T U V W X Y Z # 

Lopsided Tabs (ver.2)

At The Drive-In Tabs
 Rating:
3.5/5 (8 votes)
Lopsided lessons Tabs too difficult? Try these video lessons and learn fast
1
                ----------------------------------------------------------------------------
                             Lopsided - At the drive-in
----------------------------------------------------------------------------

Tuning: E,A,D,G,B,e

e|--------------------------------------------------------------------------|
B|--------------------------------------------------------------------------|
G|---------------------------777--------------------------------------------|
D|--555--999--999--999--999--777--555--555-555-555-555-555------------------|
A|--555--999--999--999--999--555--555--555-555-555-555-555------------------|
E|--333--777--777--777--777-------333--333-333-333-333-333------------------|

e|--------------------------------------------------------------------------|
B|--------------------------------------------------------------------------|
G|-------------------777--------------------------------------------777-----|
D|--999-999-999-999--777--555-555-555-555-555-555--999-999-999-999--777-----|
A|--999-999-999-999--555--555-555-555-555-555-555--999-999-999-999--555-----|
E|--777-777-777-777-------333-333-333-333-333-333--777-777-777-777----------|

e|--------------------------------------------------------------------------|
B|--------------------------------------------------------------------------|
G|--------------------------------------------------------------------------|
D|--555-555-555-555-555-555-------------------------------------------------|
A|--555-555-555-555-555-555-------------------------------------------------|
E|--333-333-333-333-333-333-------------------------------------------------|

e|------------14--------10-----------------------14-------10----------------|
B|--10-----------10--------10-----------10----------10-------10---------10--|
G|-----11-----------11--------11-----------11----------11-------11----11----|
D|--------12---------------------12-----------12-------------------12-------|
A|--------------------------------------------------------------------------|
E|--------------------------------------------------------------------------|
                       ^^^^Play this part 2 times^^^^
e|--------------------------------------------------------------------------|
B|--------------------------------------------------------------------------|
G|---------------------------777--------------------------------------------|
D|--555--999--999--999--999--777--555--555-555-555-555-555------------------|
A|--555--999--999--999--999--555--555--555-555-555-555-555------------------|
E|--333--777--777--777--777-------333--333-333-333-333-333------------------|

e|--------------------------------------------------------------------------|
B|--------------------------------------------------------------------------|
G|-------------------777--------------------------------------------777-----|
D|--999-999-999-999--777--555-555-555-555-555-555--999-999-999-999--777-----|
A|--999-999-999-999--555--555-555-555-555-555-555--999-999-999-999--555-----|
E|--777-777-777-777-------333-333-333-333-333-333--777-777-777-777----------|

e|--------------------------------------------------------------------------|
B|--------------------------------------------------------------------------|
G|--------------------------------------------------------------------------|
D|--555-555-555-555-555-555-------------------------------------------------|
A|--555-555-555-555-555-555-------------------------------------------------|
E|--333-333-333-333-333-333-------------------------------------------------|


e|------------14--------10-----------------------14-------10----------------|
B|--10-----------10--------10-----------10----------10-------10---------10--|
G|-----11-----------11--------11-----------11----------11-------11----11----|
D|--------12---------------------12-----------12-------------------12-------|
A|--------------------------------------------------------------------------|
E|--------------------------------------------------------------------------|
                       ^^^^Play this part 4 times^^^^

e|--------------------------------------------------------------------------|
B|--------------------------------------------------------------------------|
G|---7----------------------------------------------------------------------|
D|---7-let this ring...5----------------------------------------------------|
A|---5-----------------5-let this ring...-----------------------------------|
E|---------------------3----------------------------------------------------|
                               ^^^^^^^^
"i got lazy on this part, well i improvised, just do this a couple of times heh heh heh."

e|------------14--------10-----------------------14-------10----------------|
B|--10-----------10--------10-----------10----------10-------10---------10--|
G|-----11-----------11--------11-----------11----------11-------11----11----|
D|--------12---------------------12-----------12-------------------12-------|
A|--------------------------------------------------------------------------|
E|--------------------------------------------------------------------------|
                       ^^^^Play this part 3 times^^^^

e|----14--------10----------------------------------------------------------|
B|-------10--------10-------------------------------------------------------|
G|----------11--------11----------------------------------------------------|
D|--------------------------------------------------------------------------|
A|--------------------------------------------------------------------------|
E|--------------------------------------------------------------------------|
                       ^^^^PLay this 4 times^^^^

Oh and here is that crazy part at the end... Enjoy!

e|---------20---------------------------------------------------------------|
B|------18---------17-18-17-------------------------------------------------|
G|---19---------17----------18----------------------------------------------|
D|-----------19-------------------------------------------------------------|
A|-----------------------------20-------------------------------------------|
E|--------------------------------------------------------------------------|
            
Submit corrections

comments powered by Disqus
↑ Back to top | At The Drive-In Tabs for Lopsided. Lyrics for acoustic guitar and electric guitar. 1 Tablatures and chords are parodies/interpretations of the original songs. You may use it for private study, scholarship, research or language learning purposes only