» » »

Lobsided Tabs (ver.1)

Artists:  A B C D E F G H I J K L M N O P Q R S T U V W X Y Z # 

Lobsided Tabs (ver.1)

At The Drive-In
Rating:
0/5 (0 votes)

Tabs too difficult? Try these video lessons and learn fast.
                (Correct)
At the Drive-In
Lopsided
Standard Tuning
/=slide

Verse:
Both Guitars
Here are the chords, strum accordingly
-------------
-----2---5---
-2---2---0---
-0---X---x---
-X---2---5---
-3---X-------

Chorus:
Guitar 1 (Omar)                         
----------14-------10-------14--
-10----10----10-------10--------
----11----------11-------11-----
--------------------------------
--------------------------------
--------------------------------
Guitar 2 (Jim) Strum accordingly
-10-----------------------------
-10-----------------------------
-11-----------------------------
-12----5------------------------
-------5------------------------
-------3------------------------

Both Guitars (There is a variation of the ()’s in Omar’s Part)
------------------------------------------- ------------------------
------------------------------------------- ------------------------
--------(2)----11111111111111/999999------- -11111111/9999\11111111-
--------(0)----X-X-X-X-X-X-X/-XXXXXX------- -X-X-X-X/-XXXX\X-X-X-X--
---------------9-9-9-9-9-9-9/-777777------- -9-9-9-9/-7777\9-9-9-9--
-10------3--------------------------------- ------------------------                                             On third time do this   



Let it ring
---
---
-7-
-X-
-5-
---

After the 3rd Chorus
Guitar 1
-14-------10-------
----10-------10----
-------11-------11-
-------------------
-------------------
-------------------
Guitar 2
----------------------
----------------------
----------------------
----------------------
----------------------
-10-9-7-5-3-2-00002222


Both Guitars
(Strum Accordingly)
----------------------
-2--5-----------------
-2--0--2--------------
-X--X--0--------------
-2--5--X--------------
-------3--------------

Outro
Guitar 1        End on: Get some feedback
--------------- -------
--------------- -------
--------------- -------
--------------- -------
--------------- -------
--7----/3------ ---7---

Guitar 2 (Strum accordingly) Let it ring out on last strum
------------
--2---------
--2---------
--X---------
--2---------
------------

That’s it! Rate my tab.
            
Tabs too difficult? Try these video lessons and learn fast.


comments powered by Disqus
↑ Back to top | Tablatures and chords are parodies/interpretations of the original songs. You may use it for private study, scholarship, research or language learning purposes only