>
 >
Initiation

Initiation Guitar Tabs

At The Drive-In - Initiation chords, tabs, tablatures, lyrics

Guitar lessons | Add/correct | Request | Top 50 tabs Artists:  A B C D E F G H I J K L M N O P Q R S T U V W X Y Z 0-9

Initiation Guitar Tabs – At The Drive-In

CD, Sheet music, Poster

Do you like Initiation? Share with your friends now
Bass TabsChordsTabsUkulele
KEY:
~ =LET RING
b =BEND
/ =SLIDE
G1 =GUITAR 1
G2 =GUITAR 2
EXTRA =ADDED SAMPLE

Beginning part
|-----------------|-----------------|-----------------|-----------------|
|-----------------|-----------------|-----------------|-----------------|
|-----5^-0--------|-5^-0~----5^-0---|-5^0-------------|-5^-0---5^-0-----|
|--------5--------|----5~-------5b--|---5--------b---b|----5b-----5--b--|  -Keep repeating as necessary
|-----------------|-----------------|-----------------|-----------------|
|3~~--------------|-----------------|-----------------|-----------------|
'^hum' bit           harmonic the top '5's 

Intro:
|-2---------------|-----------------|-2---------------|----22-22-2222---|
|-3---------------|-----------------|-3---------------|----33-33-3333---|
|-2---------------|-----------------|-2---------------|----00-00-0000---|
|-0---------------|-----0-----------|-0---------------|----00-00-0000---|
|-2---------------|---2-------------|-2---------------|----22-22-2222---|
|-----------------|-3---------------|-----------------|-3--33-33-3333---|
|		  |		    |		      |			|
|-5--55--55-5--5--|-5--55--55-5--5--|-5--55--55-5--5--|-5--55--55-555---|
|-3--33--33-3--3--|-3--33--33-3--3--|-3--33--33-3--3--|-3--33--33-333---|
|-2--22--22-2--2--|-2--22--22-2--2--|-2--22--22-2--2--|-2--22--22-222---|
|-----------4--4--|-----------4--4--|-----------4--4--|-----------444---|
|-----------------|-----------------|-----------------|-----------------|
|-----------------|-----------------|-----------------|-----------------|

Verse: Bass Only First Time
|-2---------------|-----------------|-2----------3-2-0|-----------------|
|-3---------------|-----------------|-3---------------|----------3------|
|-2---------------|--------0--------|-2---------------|--------0--0-----|
|-0---------------|-----0-----------|-0---------------|------0-----0-0-0|
|-2---------------|---2-------------|-2---------------|-----2-------2---|
|-----------------|-3---------------|-----------------|-3---------------|
|		  |		    |		      |	    ^ Triplets ^|
|-5--55--55-0-0000|-5--55--55-0-0000|-5--55--55-0-0000|-5--55--55-0-0000|
|-3--33--33-3-3333|-3--33--33-3-3333|-3--33--33-3-3333|-3--33--33-3-3333|
|-2--22--22-2-2222|-2--22--22-2-2222|-2--22--22-2-2222|-2--22--22-2-2222|
|-----------4-4444|-----------4-4444|-----------4-4444|-----------4-4444|
|-----------------|-----------------|-----------------|-----------------|
|-----------------|-----------------|-----------------|-----------------|


|------2----2-----|-----------------|-2-2-2222-22-22--|-2-2-------------|
|-----3----3---3--|-----------------|-3-3-3333-33-33--|-3-3-------------|
|---2----2----2-2-|-----0--0--0---0-|-2-2-2222-22-22--|-0-0-000000000000|
|-0--------------0|---0--0---0--0---|-0-0-0000-00-00--|-0-0-000000000000|
|-----------------|--2-2--2------2--|-2-2-2222-22-22--|-2-2-222222222222|
|-----------------|-3---------------|-----------------|-3-3-333333333333|
|		  |		    |		      |			|
|-5--55--55-0-0000|-5--55--55-0-0000|-5--55--55-0-0000|-5-5-555500000000|
|-3--33--33-3-3333|-3--33--33-3-3333|-3--33--33-3-3333|-3-3-333333333333|
|-2--22--22-2-2222|-2--22--22-2-2222|-2--22--22-2-2222|-2-2-222222222222|
|-----------4-4444|-----------4-4444|-----------4-4444|---------44444444|
|-----------------|-----------------|-----------------|-----------------|
|-----------------|-----------------|-----------------|-----------------|

Pre-Chorus:
|-----------------|-----------------|-----------------|-----------------|
|--------(3-3333)-|--------(3-3333)-|--------(3-3333)-|-----------------|
|-2-22-22-4-4444--|-2-22-22-4-4444--|-2-22-22-4-4444--|-2-2222-2-2222---|
|-4-44-44-4-4444--|-4-44-44-4-4444--|-4-44-44-4-4444--|-4-4444-4-4444---|
|-5-55-5--2-2222--|-5-55-5--2-2222--|-5-55-5--2-2222--|-5-555--5-5555---|
|-------5---------|-------5---------|-------5---------|------5----------|
|		  |		    |		      |			|
|-----------------|-----------------|-----------------|-----------------|
|--------(3-3333)-|--------(3-3333)-|--------(3-3333)-|-----------------|
|-2-22-22-4-4444--|-2-22-22-4-4444--|-2-22-22-4-4444--|-2-2222-2-2239911|
|-4-44-44-4-4444--|-4-44-44-4-4444--|-4-44-44-4-4444--|-4-4444-4-444----|
|-5-55-5--2-2222--|-5-55-5--2-2222--|-5-55-5--2-2222--|-5-555--5-5557799|
|-------5---------|-------5---------|-------5---------|------5----------|

Chorus: (1 4/4 Bar, 1 3/4 Bar, 1 4/4 Bar)
|-----------------|-------------|-----------------|
|-----------------|-------------|-----------------|
|-7-7-777---------|-4-4-4442-22-|-----------------|
|-7-7-7772--020---|-4-4-4442-22-|-5-5-555-4-4-4-44|
|-5-5-5550-0---20-|-2-2-2220-00-|-5-5-555-4-4-4-44|
|-----------------|-------------|-3-3-333-2-2-2-22|
|                 |	        |                 |  
|-----------------|-------------|-----------------|
|-----------------|-------------|-----------------|
|-7-7-777----3----|-4-4-4442-22-|-----------------|
|-7-7-7772--3--3--|-4-4-4442-22-|-5-5-555-4-4-4-44|
|-5-5-5550-3----3-|-2-2-2220-00-|-5-5-555-4-4-4-44|
|-----------------|-------------|-3-3-333-2-2-2-22|
	   ^N.H.^

Outro:
|-----------------|-----------------|
|-----------------|-----------------|
|-7-7777-7-777/9/1111/14-14-------\7-|
|-7-7777-7-777----|-----------------|
|-5-555--5-555/7/9-9-/12-12-------\5-|
|------5----------|-----------------|
|		  |		    |
|-----------------|-----------------|
|-----------------|-----------------|
|-2-2222-2-2222-22|-2---------------|
|-4-4444-4-4444-44|-4---------------|
|-5-555--5-5555-55|-5---------------|
|------5----------|-----------------|


AT THE DRIVE-IN FOREVER!!!!





Comments


Popular At The Drive-In tabs & chords
Embroglio Bass Tabs
One Armed Scissor Bass Tabs
Quarantined 2 Bass Tabs
Transatlantic Foe Bass Tabs
Initiation Chords
Arcarsenal Tabs
Blue Tag Tabs
Enfilade 2 Tabs
Metronome Arthritis 2 Tabs
Initiation Ukulele


Song lyrics



↑ Back to top | Tablatures and chords are parodies/interpretations of the original songs. You may use it for private study, scholarship, research or language learning purposes only
© 2014 AZChords.com Contact us | Privacy policy | DMCA | Add/correct tabs | Request tabs | Top 50 tabs