» » »

Incetardis Bass tabs (ver.1)

Artists:  A B C D E F G H I J K L M N O P Q R S T U V W X Y Z # 

Incetardis Bass tabs (ver.1)

At The Drive-In
Rating:
0/5 (0 votes)

Tabs too difficult? Try these video lessons and learn fast.
                -------------------------------------------------------------------------------
-------------------------------------------------------------------------------


 Tuning:Standard

 Intro x3 (0.41)
G|-----------------|
D|-----------------|
A|-----------------|
E|8-8--3-3---------|
 x1
G|-----------------|
D|-----------------|
A|-----------------|
E|8-8-8-8-8--------|

 Verse x8
G|------------------------|
D|-----7------------------|
A|------------------------|
E|5-55---5-3-3/4-4/5------|

 Chorus x8
G|------------------------|
D|------------------------|
A|5h6---------------------|
E|----5-5/8-8-88-88-8-----|
 
 Post-Chorus
G|-----------------|
D|-----------------|
A|-----------------|
E|8-8-8-8-8--------|

 Verse x8
G|------------------------|
D|-----7------------------|
A|------------------------|
E|5-55---5-3-3/4-4/5------|

G|-----------------|
D|-----------------|
A|-----------------|
E|8-8--3-3---------|
 x1
G|-----------------|
D|-----------------|
A|-----------------|
E|8-8-8-8-8--------|

 Pause.

 Chorus x8 (2.35)
G|------------------------|
D|------------------------|
A|5h6---------------------|
E|----5-5/8-8-88-88-8-----|

G|-----------------|
D|-----------------|
A|-----------------|
E|8-8--3-3---------|
 x1
G|-----------------|
D|-----------------|
A|-----------------|
E|8-8-8-8-8--------|

 Outro x4
G|-----------------------|
D|-----------------------|
A|5-55-------------------|
E|-----5-55-7/8-88-------|
            
Tabs too difficult? Try these video lessons and learn fast.




comments powered by Disqus
↑ Back to top | Tablatures and chords are parodies/interpretations of the original songs. You may use it for private study, scholarship, research or language learning purposes only