» » »

At The Drive-In, Incetardis Tabs (ver.1)

Artists:  A B C D E F G H I J K L M N O P Q R S T U V W X Y Z # 

Incetardis Tabs (ver.1)

At The Drive-In Tabs
Rating:
0/5 (0 votes)
Hard to play? Try these video lessons and learn fast.
                (1.1)
e|----10-10-10---10-10-10-------------------------------------|
b|----8--8--8----8--8--8-------5---5--5----5------------------|
g|----10-10-10---7--7--7-----8---8---8-----5------------------|
d|------------------------------------------------------------|
a|------------------------------------------------------------|
E|------------------------------------------------------------|

then guitar 1 comes in w/ (1.2) w/ guitar 2 playing (1.3) under THAT

(1.2) x3 and                     last x1
e|-----------------------------|------------------------------|
b|-----------------------------|------------------------------|
g|-----5-5--x------------------|-----5--5555555---------------|
d|-----5-5--x---5-5------------|-----5--5555555---------------|
a|-----3-3--x---5-5------------|-----3--3333333---------------|
E|----------x---3-5------------|------------------------------|

(1.3)
e|------------------------------------------------------------|
b|----55--55--55--55--55--55----55555555----------------------|
g|----88--88--88--88--88--88----88888888----------------------|
d|------------------------------------------------------------|
a|------------------------------------------------------------|
E|------------------------------------------------------------|

...not sure yet

then...
e|-----------------------10--10-------------------------------|
b|-----------------------9---9--------------------------------|
g|------------------------------------------------------------|
d|------------------------------------------------------------|
a|---5-6-5--------3-------------------------------------------|
E|----------5--3----------------------------------------------|

AT THE DRIVE-IN FOREVER!!!!!!!!11
            

comments powered by Disqus
↑ Back to top | At The Drive-In Tabs for Incetardis. Lyrics for acoustic guitar and electric guitar. Tablatures and chords are parodies/interpretations of the original songs. You may use it for private study, scholarship, research or language learning purposes only