>
 >
Hulahoop

Hulahoop Bass Tabs

At The Drive-In - Hulahoop chords, tabs, tablatures, lyrics

Guitar lessons | Add/correct | Request | Top 50 tabs Artists:  A B C D E F G H I J K L M N O P Q R S T U V W X Y Z 0-9

Hulahoop Bass Tabs – At The Drive-In

CD, Sheet music, Poster

Do you like Hulahoop? Share with your friends now
Bass Tabs
G||-----------------------|-------------------------|------------------------|
D||-----------------------|-------------------------|------------------------|
A||---------7--7----------|-----------5--5--5--4----|-----------7------------|
E||--0------------0--7----|--5--5--5----------------|--0--0--0-------0--7----|
                                                                            
-------------------------|------------------------|-------------------------|
-------------------------|------------------------|-------------------------|
-----------5--5--5--4----|-----------7------------|-----------5--5--5--4----|
--5--5--5----------------|--0--0--0-------0--7----|--5--5--5----------------|
                                                                               
------------------------|--------------------------|--------------------------|
------------------------|--------------------------|--------------------------|
-----------7------------|-----------5--5--5--5--5--|--5--5--5--4--4--4--4--4--|
--0--0--0-------0--7----|--5--5--5-----------------|--------------------------|
                                                                      
----------------------||
----------------------||
--4--4-4--------------||
---------0------------||


 

||-----------------------|----------------------|
||*----------------------|----------------------|
||*----------------------|----------------------|
||---7----7----5----5----|--2----2----5----5----|
                                                              
----------------------|-------------------|-------------------|
----------------------|-------------------|------------------*|
----------------------|--7----------------|------------------*|
--7----7----5----5----|-------------------|-------------------|
                                                                     
----------------------|----------------------|----------------------|
----------------------|----------------------|----------------------|
----------------------|----------------------|----------------------|
--7----7----5----5----|--2----2----5----5----|--7----7----5----5----|
                                                                              
--------------------------|------------------------||
--------------------------|------------------------||
--------------------------|-----7-------7----5---0-||
--0--0--0--0--0--0--0--0--|--0-------0-------------||




||-------------------------|-------------------------|
||-------------------------|-------------------6-----|
||--4----4--4--0--4--0--4--|----4--4--4--0--4-----4--|
||-------------------------|-------------------------|
                                                                              
-------------------------|-------------------------||
----------------------5--|-------------5-----------||
--3----3--3--0--3--3-----|----3--3--3-----3--3--3--||
-------------------------|-------------------------||



                                                                          
||-------------------------|-------------------------|
||-------------------------|-------------------------|
||----7--7--7--5--7--7-----|-------------------------|
||----------------------5--|----5--5--5--5--5--5--5--|

|-------------------------|-------------------------|
|-------------------------|-------------------------|
|----7--7--7--5--7--7-----|-------------------------|
|----------------------5--|----5--5--5--5--5--5--5--|

|-------------------------|-------------------------|
|-------------------------|-------------------------|
|----7--7--7--5--7--7-----|-------------------------|
|----------------------5--|----5--5--5--5--5--5--5--|

|-------------------------|-------------------------||
|-------------------------|--7--7----7--7--7--------||
|----7--7--7--5--7--7-----|-------------------------||
|----------------------5--|-------------------------||



                                                                       
||-----------------------|----------------------|----------------------|
||*----------------------|----------------------|----------------------|
||*----------------------|----------------------|----------------------|
||---7----7----5----5----|--2----2----5----5----|--7----7----5----5----|
                                                                   
-------------------|-------------------|
-------------------|------------------*|
--7----------------|------------------*|
-------------------|-------------------|

|--------------------------|--------------------------|--------------------------|
|--------------------------|--------------------------|--------------------------|
|--------------------------|--------------------------|--------------------------|
|--7--7--7--7--5--5--5--5--|--2--2--2--2--5--5--5--5--|--7--7--7--7--5--5--5--5--|
                                                     
--------------------------|--------------------------|
--------------------------|--------------------------|
--------------------------|-----7--7--7--7--7--7-----|
--0--0--0--0--0--0--0--0--|--0--------------------0--|
                                                      
--------------------------|--------------------------|--------------------------|
--------------------------|--------------------------|--------------------------|
--------------------------|--------------------------|--------------------------|
--7--7--7--7--5--5--5--5--|--2--2--2--2--5--5--5--5--|--7--7--7--7--5--5--5--5--|
                                                                               
--------------------------|-------------------------|
--------------------------|-------------------------|
--------------------------|-----7---------7-----7---|
--0--0--0--0--0--0--0--0--|--0------0--0-----0------|
                                                     
--------------------------|--------------------------|--------------------------|
--------------------------|--------------------------|--------------------------|
--------------------------|--------------------------|--------------------------|
--7--7--7--7--5--5--5--5--|--2--2--2--2--5--5--5--5--|--7--7--7--7--5--5--5--5--|
                                                      
--------------------------|--------------------------||
--------------------------|--------------------------||
--------------------------|-----7--7--7--7--7--7--5--||
--0--0--0--0--0--0--0--0--|--0-----------------------||



                                                                               
||-------------------------|-------------------------|
||-------------------------|-------------------6-----|
||--4----4--4--0--4--0--4--|----4--4--4--0--4-----4--|
||-------------------------|-------------------------|
                                                                                
-------------------------|-------------------------||
----------------------5--|-------------5-----------||
--3----3--3--0--3--3-----|----3--3--3-----3--3--3--||
-------------------------|-------------------------||




||-------------------------|-------------------------|
||-------------------------|-------------------------|
||----7--7--7--5--7--7-----|-------------------------|
||----------------------5--|----5--5--5--5--5--5--5--|

|-------------------------|-------------------------|
|-------------------------|-------------------------|
|----7--7--7--5--7--7-----|-------------------------|
|----------------------5--|----5--5--5--5--5--5--5--|

|-------------------------|-------------------------|
|-------------------------|-------------------------|
|----7--7--7--5--7--7-----|-------------------------|
|----------------------5--|----5--5--5--5--5--5--5--|

|-------------------------|-------------------------||
|-------------------------|--7--7----7--7--7--------||
|----7--7--7--5--7--7-----|-------------------------||
|----------------------5--|-------------------------||




||---------------------------|--------------------------|--------------------------|
||*--------------------------|--------------------------|--------------------------|
||*--------------7--7--------|--------------5--5--5--4--|--------------7--7--------|
||---0--0--0--0--------0--7--|--7--7--5--5--------------|--0--0--0--0--------0--7--|
                                                                              
-------------------------||
------------------------*||
--------------5----5----*||
--7--7--5--5-------------||




||------------------------|-------------------------|------------------------|
||------------------------|-------------------------|------------------------|
||-----------7------------|-----------5--5--5--4----|-----------7------------|
||--0--0--0-------0--7----|--5--5--5----------------|--0--0--0-------0--7----|
                                                                           
-------------------------|------------------------|--------------------------|
-------------------------|------------------------|--------------------------|
-----------5--5--5--4----|-----------7------------|-----------5--5--5--5--5--|
--5--5--5----------------|--0--0--0-------0--7----|--5--5--5-----------------|
                                                                             
--------------------------|----------------------||
--------------------------|----------------------||
--5--5--5--4--4--4--4--4--|--4--4-4--------------||
--------------------------|---------0------------||


 
                                                                             
||-------------------------|-------------------------|
||-------------------------|-------------------6-----|
||--4----4--4--0--4--0--4--|----4--4--4--0--4-----4--|
||-------------------------|-------------------------|

-------------------------|-------------------------||
----------------------5--|-------------5-----------||
--3----3--3--0--3--3-----|----3--3--3-----3--3--3--||
-------------------------|-------------------------||



                                                      
||-------------------------|-------------------------|
||-------------------------|-------------------------|
||----7--7--7--5--7--7-----|-------------------------|
||----------------------5--|----5--5--5--5--5--5--5--|

|-------------------------|-------------------------|
|-------------------------|-------------------------|
|----7--7--7--5--7--7-----|-------------------------|
|----------------------5--|----5--5--5--5--5--5--5--|

|-------------------------|-------------------------|
|-------------------------|-------------------------|
|----7--7--7--5--7--7-----|-------------------------|
|----------------------5--|----5--5--5--5--5--5--5--|

|-------------------------|-------------------------||
|-------------------------|-------------------------||
|----7--7--7--5--7--7-----|-------------------------||
|----------------------5--|--5----------------------||





Comments


Popular At The Drive-In tabs & chords
Napoleon Bass Tabs
Patern Against User 2 Bass Tabs
Pickpocket Bass Tabs
Rascuache Bass Tabs
Sleepwalk Capsules 1 Bass Tabs
Star Slight 2 Bass Tabs
Alpha Centauri Tabs
Arcarsenal Tabs
Arcarsenal 1 Tabs
Rolodex Propaganda Tabs


Song lyrics



↑ Back to top | Tablatures and chords are parodies/interpretations of the original songs. You may use it for private study, scholarship, research or language learning purposes only
© 2014 AZChords.com Contact us | Privacy policy | DMCA | Add/correct tabs | Request tabs | Top 50 tabs