» » »

At The Drive-In, Heliotrope Tabs (ver.1)

Artists:  A B C D E F G H I J K L M N O P Q R S T U V W X Y Z # 

Heliotrope Tabs (ver.1)

At The Drive-In Tabs
Rating:
0/5 (0 votes)
Heliotrope lessons Tabs too difficult? Try these video lessons and learn fast
                heliotrope; vaya
At the Drive-in

this intro part for the first part is like sixteenth notes
all the way so pick fast (there are 10s and 12s)
e[--10101010101101010101011212121212121212--------------------------------]
b[----------------------------------------1212121212121313131313131-------]
g[------------------------------------------------------------------------]
d[------------------------------------------------------------------------]
a[------------------------------------------------------------------------]
E[------------------------------------------------------------------------]

verse
e[--19----17---------17-15--19----17-------------------]
b[-----20----17-15-17----------20----17-15-17-15-12-12-]
g[-----------------------------------------------------]
d[-----------------------------------------------------]
a[-----------------------------------------------------]
E[-----------------------------------------------------]

Increase the dosage, count back from ten...
e[------------------------------------------------]
b[--7^^^------3^^^^-------------------------------]
g[------------------------------------------------]
d[------------------xx-xx-0---xx-xx-0-------------]
a[------------------xx-xx-10^-xx-xx-12^-----------]
E[------------------xx-xx-0---xx-xx-0-------------]
its not the same amount of bending each time but i figure 
you guys can figure that out

then theres another part where you just strum the verse
 fast as possible but thats about all i figured out so far
but its more then nothing.
            

comments powered by Disqus
↑ Back to top | At The Drive-In Tabs for Heliotrope. Lyrics for acoustic guitar and electric guitar. Tablatures and chords are parodies/interpretations of the original songs. You may use it for private study, scholarship, research or language learning purposes only