» » »

At The Drive-In, For Now... We Toast Bass tabs (ver.1)

Artists:  A B C D E F G H I J K L M N O P Q R S T U V W X Y Z # 

For Now... We Toast Bass tabs (ver.1)

At The Drive-In Tabs
 Rating:
4/5 (4 votes)
For Now... We Toast lessons Tabs too difficult? Try these video lessons and learn fast
1
                Tuning: E-A-D-G


Verse 1:
G|---------------------------------|
D|---------------------------------|
A|-7-7-7-----------9-9-9-7-7-7-7-7-|
E|-------7-7-7-7-7-----------------| (x6)


Chorus:
G|--------------------------------|
D|--------------------------------|
A|------------------------2-2-0-0-|
E|-5--5-2-2--3--3-3-3-3-3---------| (x2)


Verse 2: 
G|---------------------------------|
D|---------------------------------|
A|-7-7-7-----------9-9-9-7-7-7-7-7-|
E|-------7-7-7-7-7-----------------| (x6)


Chorus:
G|--------------------------------|
D|--------------------------------|
A|------------------------2-2-0-0-|
E|-5--5-2-2--3--3-3-3-3-3---------| (x3)

G|-------------------------|
D|-------------------------|
A|-------------------------|
E|-5--5-2-2--3--3-3-3-3-3--| (x1)


Interlude:
G|--------------------------------------------------------------------|
D|--------------------------------------------------------------------|
A|-5-5-5-5-5-5-5-7-7-7-7-7-7-7----------------------------------------|
E|-----------------------------8-8-8-8-8-8-8-8-8-7-7-7-7-7-5-5-5-5-5--| (x3)


Chorus:
G|--------------------------------|
D|--------------------------------|
A|------------------------2-2-0-0-|
E|-5--5-2-2--3--3-3-3-3-3---------| (x3)

G|-------------------------|
D|-------------------------|
A|-------------------------|
E|-5--5-2-2--3--3-3-3-3-3--| (x1)
            
Submit corrections

comments powered by Disqus
↑ Back to top | At The Drive-In Bass for For Now... We Toast. Lyrics for acoustic guitar and electric guitar. 1 Tablatures and chords are parodies/interpretations of the original songs. You may use it for private study, scholarship, research or language learning purposes only