» » »

At The Drive-In, For Now... We Toast Tabs (ver.1)

Artists:  A B C D E F G H I J K L M N O P Q R S T U V W X Y Z # 

For Now... We Toast Tabs (ver.1)

At The Drive-In Tabs
 Rating:
4/5 (4 votes)
For Now... We Toast lessons Tabs too difficult? Try these video lessons and learn fast
1
                Intro/Verse:
e|-------------------------------------|
b|-------------------------------------|
g|-------------------------------------|
d|---9-9-9-9-9-9-9-9-7-7-7-7-7-7-7-7---|
a|---7-7-7-6-6-6-6-6-9-9-9-7-7-7-7-7---|
e|---------7-7-7-7-7-------------------|

  gtr1:             gtr2:
e|-----------------|--------------------------|
b|-----------------|--------------------------|
g|------13----13---|----9--9--9--9--9--9--9---|
d|---14----14------|---13-13-13-13-13-13-13---|
a|-----------------|--------------------------|
e|-----------------|--------------------------|

Chorus:
  gtr1:
e|-------------------------------------------------|
b|---0--0------------------------3-3-3-3-2-2-2-2---|
g|---2--2--------4-4-4-4-4-4-4-4-4-4-4-4-2-2-2-2---|
d|---2--2--4-4-4-5-5-5-5-5-5-5-5-4-4-4-4-2-2-2-2---|
a|---0--0--4-4-4-5-5-5-5-5-5-5-5-2-2-2-2-0-0-0-0---|
e|---------2-2-0-3-3-3-3-3-3-3-3-------------------|

  gtr2:
e|---------------7-----------------------------7------------|
b|---8-7----8-10---10-7h8p7---8---8----8----8----10-7h8p7---|
g|--------7-------------------------------------------------|
d|--------------------------7-------------------------------|
a|------------------------------9---10---10-----------------|
e|----------------------------------------------------------|

gtr2:  (Verse 2)        (Outro)
e|-------------------|---------------------|
b|---7-8-------------|---8-7-----8-7---8---|
g|-------7p6h7p6h7---|-------7-------7-----|
d|-------------------|---------------------|
a|-------------------|---------------------|
e|-------------------|---------------------|

Bridge:
e|-------------------------------------------------|
b|-------------------------------------------------|
g|---7-7-7-7-9-9-9-9-------------------------------|
d|---7-7-7-7-9-9-9-9-10-10-10-10-9-9-9-9-7-7-7-7---|
a|---5-5-5-5-7-7-7-7-10-10-10-10-9-9-9-9-7-7-7-7---|
e|--------------------8--8--8--8-7-7-7-7-5-5-5-5---|

then chorus gtr1 (clean)
            
Submit corrections

comments powered by Disqus
↑ Back to top | At The Drive-In Tabs for For Now... We Toast. Lyrics for acoustic guitar and electric guitar. 1 Tablatures and chords are parodies/interpretations of the original songs. You may use it for private study, scholarship, research or language learning purposes only