» » »

At The Drive-In, Enfilade Bass tabs (ver.2)

Artists:  A B C D E F G H I J K L M N O P Q R S T U V W X Y Z # 

Enfilade Bass tabs (ver.2)

At The Drive-In Tabs
Rating:
5/5 (5 votes)
Hard to play? Try these video lessons and learn fast.
                ARTIST : AT THE DRIVE-IN
SONG TITLE : ENFILADE
ALBUM : RELATIONSHIP OF COMMAND
BASSIST : PAUL HINOJOS
N.B. ~ means hammer-on

Bass starts at about 0:43

1ST PART

G -------------------------------------------------------------------------
D -------------------------------------------------------------------------
A ------------------------------------7------5-5-5-5-5-5-5-5-0-------------
E -5~7---7-7-7-7---5~7----7-7-7-7-------------------------------5-5-5-5-5-5

Play this 8 times then ....

2ND PART

G -------------------------------------------------
D -------------------------------------------------
A ------------------------777--5-5-55--------------
E ---7--7--77--7--77-77-7---------------5-5-5-5-5---

in a stacatto style. Play it twice.

then the CHORUS ......

G -------------------------------------------------------------
D -----------------------------------------7-7-7----7------7---
A -------------------------------------------------------------
E ---7-7-7-7-7----3-3-3-3-3---5-5-5-5-5-5--------5------5------

play 4 times.

Then back to first bit, play it 8 times,
then straight to chorus, playing that 4 times.
Then play this ......

TRANSITION BIT

G --------------------------------------------
D --------------------------------------------
A --------------7---5---7-5-------------------
E ---7-----5------------------7--5----5--5----

Do that twice.

Then rest, from about 3:10 to 3:20,
then play second bit (stacatto) 4 times.
Then play chorus to end (around 4:30)

FORMAT

FIRST PART X 8
SECOND PART X 2
CHORUS X 4
FIRST PART X 8
CHORUS X 4
TRANSITION BIT X 2
REST (FROM 3:10 TO 3:20 ON THE C.D, APPROXIMATELY)
SECOND BIT X 4
CHORUS X LOTS UNTIL END

and that's it!! work on the rythym, once you've got it it's fine,
and good fun to play. if there are any mistakes in this,
please e-mail me corrections. Thanks, Crippy.
            

comments powered by Disqus
↑ Back to top | At The Drive-In Bass for Enfilade. Lyrics for acoustic guitar and electric guitar. Tablatures and chords are parodies/interpretations of the original songs. You may use it for private study, scholarship, research or language learning purposes only