>
 >
Doorman's Placebo 1

Doorman's Placebo 1 Guitar Tabs

At The Drive-In - Doorman's Placebo 1 chords, tabs, tablatures, lyrics

Guitar lessons | Add/correct | Request | Top 50 tabs Artists:  A B C D E F G H I J K L M N O P Q R S T U V W X Y Z 0-9

Doorman's Placebo 1 Guitar Tabs – At The Drive-In

CD, Sheet music, Poster

Do you like Doorman's Placebo 1? Share with your friends now
Bass TabsTabsTabs v2
verse: guitar 1
e|-----|-----|----------------|    |-----|-----|-----|-------------|
b|-----|-----|--------5-------|    |-----|-----|-----|-------------|
g|--6--|--7--|-4-6------4-6---|    |--6--|--7--|--2--|--xx6--7-----|
D|--6--|--7--|-----7--------7-|    |--6--|--7--|--2--|--xx6--7--7--|
A|--4--|--5--|----------------|    |--4--|--5--|--0--|--xx4--5--7--|
E|-----|-----|----------------|(2x)|-----|-----|-----|----------5--|

Verse: guitar 2
e|--------------------------------|
b|--------------------------------|
g|--------------------------------|
D|--7p6-6-7p6-6-7p6-6-7p6-6-7p6---|
A|------------------------------7-|
E|--------------------------------|

Chorus: guitar 1
e|----------------------|--------------------------------------------------|
b|-8-88-8-88-8-88-8-88--|--------------------------------------------------|
g|-7-77-7-77-7-77-7-77--|-12--12-12-12-12-11--11-11-11-11-7--7-7-7-7-6-4-2-|
D|-x-xx-x-xx-x-xx-x-xx--|-x---x--x--x--x--x---x--x--x--x--x--x-x-x-x-x-x-2-|
A|-x-xx-x-xx-x-xx-x-xx--|-10--10-10-10-10-9---9--9--9--9--5--5-5-5-5-4-2-0-|
E|-7-77-7-77-7-77-7-77--|--------------------------------------------------|

Chorus: Guitar 2
e|-----------------------|-----------------------------------------------|
b|-----------------------|-----------------------------------------------|
g|-----------------------|-----------------------------------------------|
D|-7-77-7-77-7-77-8-5----|--9---9--9--9--9--7--7-7-7-7-4--4-4-4-4-2------|
A|-5-55-5-55-5-55-----5--|--10--10-10-10-10-9--9-9-9-9-5--5-5-5-5-4-2-0--|
E|-3-33-3-33-3-33--------|-----------------------------------------------|

Bridge p.1
e|----------------------------------------------|
b|----------------------------------------------|
g|-7------7-----7-77-6-66-4-44-2-2222-5---------|
D|-7------7-----7-77-6-66-4-44-2-2222-5---------|
A|-5------5-----5-55-4-44-2-22-0-0000-5---------|
E|------------------------------------3--3-2-0--|

Bridge p.2
e|-------------------------------------16-14-----|           |-----------|
b|-15-15-14-14-12-12-12-12-15-15-14-14-------17b-|           |-14-12-14b-|
g|-----------------------------------------------|           |-----------|
D|-----------------------------------------------|           |-----------|
A|-----------------------------------------------|           |-----------|
E|-----------------------------------------------|pt.1&2 then|-----------|

Song Order:
Verse
Chorus
Verse
Chorus
Bridge
Verse
Chorus
Bridge
Verse





Comments


Popular At The Drive-In tabs & chords
300mhz Bass Tabs
Give It A Name Bass Tabs
Transatlantic Foe 2 Bass Tabs
Arcarsenal 2 Tabs
Catacombs Intro Tabs
Initiation Tabs
Lopsided 2 Tabs
Napoleon 2 Tabs
One Armed Scissor 2 Tabs
Winter Month Novelty Tabs


Song lyrics



↑ Back to top | Tablatures and chords are parodies/interpretations of the original songs. You may use it for private study, scholarship, research or language learning purposes only
© 2014 AZChords.com Contact us | Privacy policy | DMCA | Add/correct tabs | Request tabs | Top 50 tabs