» » »

At The Drive-In, Doorman's Placebo Bass tabs (ver.1)

Artists:  A B C D E F G H I J K L M N O P Q R S T U V W X Y Z # 

Doorman's Placebo Bass tabs (ver.1)

At The Drive-In Tabs
Rating:
0/5 (0 votes)
Doorman's Placebo lessons Tabs too difficult? Try these video lessons and learn fast
                -------------------------------------------------------------------------------
-------------------------------------------------------------------------------


 Tuning:standard
 Intro (0.07)
G|---------------------------|
D|---------7--7--------------|
A|4~---5~----5----------77---|
E|--------------5~--5~-------|

 Verse 
G|----------------------------------------------------------|
D|---------7--7-----------------------7--7------------------|
A|4~---5~----5----------77---4~---5~----5----------7p5------|
E|--------------5~--5~---------------------5~--5~-----------|

G|----------------------------------------------------|
D|---------7--7---------------------------------------|
A|4~---5~----5----------------------------------------|
E|--------------55-5-5-55-5-5-5-5-55-5-5-55-5-5-------|

 Chorus x2
G|--------------------------------------------|
D|------------------------777-----------------|
A|--------------------555-----555-5-7-5-------|
E|7-77-7-77-7-77-7-77-------------------------|

 Post-Chorus
G|---------------------------|
D|---------7--7--------------|
A|4~---5~----5----------77---|
E|--------------5~--5~-------|

 Verse 
G|----------------------------------------------------------|
D|---------7--7-----------------------7--7------------------|
A|4~---5~----5----------77---4~---5~----5----------7p5------|
E|--------------5~--5~---------------------5~--5~-----------|

G|----------------------------------------------------|
D|---------7--7---------------------------------------|
A|4~---5~----5----------------------------------------|
E|--------------55-5-5-55-5-5-5-5-55-5-5-55-5-5-------|

 Chorus x4
G|--------------------------------------------|
D|------------------------777-----------------|
A|--------------------555-----555-5-7-5-------|
E|7-77-7-77-7-77-7-77-------------------------|

 Bridge
G|--------------------------------------------|
D|-------4-7777-7-5---------4-7777-7p5--------|
A|5~---5------------5555--5------------5------|
E|--------------------------------------------|
 x2
G|--------------------------------------------------------------------------------|
D|--------------------------------------------------------------------------------|
A|5-55-5p4-4-44-2-22-0-00-----------------3h4-5h7-5h7-5h7------3/4-5h7-5h7-5h7----|
E|------------------------3~--3-2-0---3h5------------------3h5--------------------|

G|---------------------------|
D|---------7--7--------------|
A|4~---5~----5----------77---|
E|--------------5~--5~-------|

G|----------------------------------------------------------|
D|---------7--7-----------------------7--7------------------|
A|4~---5~----5----------77---4~---5~----5----------7p5------|
E|--------------5~--5~---------------------5~--5~-----------|

G|----------------------------------------------------|
D|---------7--7---------------------------------------|
A|4~---5~----5----------------------------------------|
E|--------------55-5-5-55-5-5-5-5-55-5-5-55-5-5-------|

 Chorus x4
G|--------------------------------------------|
D|------------------------777-----------------|
A|--------------------555-----555-5-7-5-------|
E|7-77-7-77-7-77-7-77-------------------------|

G|--------------------------------------------|
D|-------4-7777-7-5---------4-7777-7p5--------|
A|5~---5------------5555--5------------5------|
E|--------------------------------------------|
 x3
G|--------------------------------------------------------------------------------|
D|--------------------------------------------------------------------------------|
A|5-55-5p4-4-44-2-22-0-00-----------------3h4-5h7-5h7-5h7------3/4-5h7-5h7-5h7----|
E|------------------------3~--3-2-0---3h5------------------3h5--------------------|

G|----------------------------------|
D|----------------------------------|
A|5-55-5p4-4-44-2-22-0-00-----------|
E|------------------------3~--3-2-0-|

 Outro
G|---------------------------|
D|---------7--7--------------|
A|4~---5~----5----------77---|
E|--------------5~--5~-------|

G|----------------------------------------------------------|
D|---------7--7-----------------------7--7------------------|
A|4~---5~----5----------77---4~---5~----5----------7p5------|
E|--------------5~--5~---------------------5~--5~-----------|

G|-----------------------------|
D|---------7--7----7-----------|
A|4~---5~----5-----------77----|
E|--------------5~---5~--------|

 Pause.
 x4
G|--------------------------------|
D|--------------------------------|
A|5h7777-5h7777-5h7777-5h7777-----|
E|--------------------------------|
            

comments powered by Disqus
↑ Back to top | At The Drive-In Bass for Doorman's Placebo. Lyrics for acoustic guitar and electric guitar. Tablatures and chords are parodies/interpretations of the original songs. You may use it for private study, scholarship, research or language learning purposes only