» » »

At The Drive-In, Cosmonaut Bass tabs (ver.2)

Artists:  A B C D E F G H I J K L M N O P Q R S T U V W X Y Z # 

Cosmonaut Bass tabs (ver.2)

At The Drive-In Tabs
 Rating:
3.4/5 (5 votes)
Cosmonaut lessons Tabs too difficult? Try these video lessons and learn fast
1
                At The Drive-In: Cosmonaut
Standard Tuning

Such a great band.  Please rate.  Thanks.

Intro X2 (0:00-0:18)
G|-----------------------------------------------------------------|
D|-7-7-7-7-7-7-7-7-7-7-7-7-7-7-7-7-5-5-5-5-5-5-5-5-5-5-5-5-5-5-5-5-|
A|-----------------------------------------------------------------|
E|-----------------------------------------------------------------|

G|-----------------------------------------------------------------|
D|-----------------------------------------------------------------|
A|-3-3-3-3-3-3-3-3-3-3-3-3-3-3-3-3-5-5-5-5-5-5-5-5-5-5-5-5-5-5-5-5-|
E|-----------------------------------------------------------------|

Verse X2(0:19-0:37)
G|-----------------------------------------------------------------|
D|-7-7-7-7-7-7-7-5-5-5-5-5-5---------------------------------------|
A|----------------------------3-3-3-3-3-3-3--5-5-5-5-5-5-----------|
E|-----------------------------------------------------------------|

Chorus X2(0:37-0:56)
G|-----------------------------------------------------------------|
D|--33333--333333----------------5555555555555555555555555555------|
A|----------------00000--000000------------------------------------|
E|-----------------------------------------------------------------|
Repeat Intro
Repeat Verse
Repeat Chorus

Interlude X1(1:55)
G|-----------------------------------------------------------------|
D|---7--7-7--5--5-5------------------------------------------------|
A|----------------------7--7-7--5--5-5-----------------------------|X2
E|-----------------------------------------------------------------|

G|-----------------------------------------------------------------|
D|-7777777777-55555555---------------------------------------------|
A|--------------------777777777-555555555555-----------------------|X2
E|-----------------------------------------------------------------|

G|-----------------------------------------------------------------|
D|---7--7-7--5--5-5------------------------------------------------|
A|----------------------7--7-7--5--5-5-----------------------------|X2
E|-----------------------------------------------------------------|

Break(2:24)
G|-----------------------------------------------------------------|
D|---------------------------------------5-------------------------|
A|-------3-------------3---------------3-----------------333333333-|
E|-0------------0--------------0-0--------------0------------------|

Repeat Interlude
            
Submit corrections

comments powered by Disqus
↑ Back to top | At The Drive-In Bass for Cosmonaut. Lyrics for acoustic guitar and electric guitar. 1 Tablatures and chords are parodies/interpretations of the original songs. You may use it for private study, scholarship, research or language learning purposes only