» » »

Circuit Scene Tabs (ver.1)

Artists:  A B C D E F G H I J K L M N O P Q R S T U V W X Y Z # 

Circuit Scene Tabs (ver.1)

At The Drive-In
Rating:
0/5 (0 votes)

Hard to play? Try these video lessons and learn fast.
                Track: Circuit Scene

Standard Tuning (E B G D A E)

Intro

Gtr.1 (Clean with lots of delay)

 PM……………………………………………………………………………
|---------0-------------0--------|
|--10-----9-----10------9--------|
|----------------7---------------|
|--------------------------------|
|--------------------------------|
|--------------------------------|

Gtr.2 (Clean)

|------------------------------------------|
|------------------------------------------|
|--2--2--2--1--1—1/2--2--2--2--4--4--4-----|
|------------------------------------------|
|------------------------------------------|
|------------------------------------------|

Gtr.1 (Distortion)
    A                 D
|-----------------------------------------|
|--10-------------------------------------|
|---9--x16------------7-------------------|
|---7-----------------7--x16--------------|
|---------------------5-------------------|
|-----------------------------------------|

Gtr.2 (Distortion)
   A                  D 
|-----------------------------------------|
|--10-------------------------------------|
|---9—let ring--------7-------------------|
|---7-----------------7—let ring----------|
|---------------------5-------------------|
|-----------------------------------------|

Verse (…I’ll fight my way…)

Gtr.1 plays the A and D chords

Gtr.2

|----------0--------------------|
|--2--2-2--2---3--3-3--3--------|
|--2--2-2--2---2--2-2--2--------|
|--2--2-2------0--0-0--0--------|
|--0--0-0------0--0-0--0--------|
|-------------------------------|

Chorus (…do it…)

Gtr.1 & 2

  F#        A  E            B        D  A 
|-------------------------------------------------------|
|------------------------------------3------------------|
|-----------2---------------4--44-4--2--2--2-2-222------|
|--4--44-4--2--2--2-2-222---4--44-4--0--2--2-2-222------|
|--4--44-4--0--2--2-2-222---2--22-2-----0—-0-0-000------|
|--2--22-2-----0--0-0-000-------------------------------|

Gtr.1

|----------------------------------------------------|
|--1088-1088-1088-1088-1088----2--2-2--3-------------|
|------------------------------2--2-2--2-------------|
|------------------------------2--2-2--0—let ring----|
|------------------------------0--0-0--0-------------|
|----------------------------------------------------|

Gtr.2

|---0------------------------------------------------|
|--10-------------------------10-1010----------------|
|---9—let ring-----------------9--9-9--7-------------|
|---7--------------------------7--7-7--7—let ring----|
|--------------------------------------5-------------|
|----------------------------------------------------|

Gtr.2 lets an A5 chord ring out whilst
Gtr.1 plays this solo:

|----------------------------------------------------|
|------------10--------------------10-----12--10-----|
|--11--12-11---11--------11--12-11---11--------------|
|----------------12-11-----------------12------------|
|----------------------------------------------------|
|----------------------------------------------------|

The rest is the same

Both guitars end on F#
            
Hard to play? Try these video lessons and learn fast. | Correct




comments powered by Disqus
↑ Back to top | Tablatures and chords are parodies/interpretations of the original songs. You may use it for private study, scholarship, research or language learning purposes only