» » »

Chanbera Bass tabs (ver.1)

Artists:  A B C D E F G H I J K L M N O P Q R S T U V W X Y Z # 

Chanbera Bass tabs (ver.1)

At The Drive-In
Rating:
0/5 (0 votes)

Hard to play? Try these video lessons and learn fast.
                At The Drive-In
off In/Casino/Out

E,A,D,G   the way you should be tuned

it was tough to hear some of the bass riffs in 
this song, so if its not exact, go cry about it. 

after about 12 seconds...
VERSE:
--------------------------------|
--------------------------------|
--------------------------------|
5-5-5-5-0-3-0-5---5-5-5-7-0-3-5-|

--------------------------------|   
--------------------------------|    
--------------------------------|      
5-5-5-5-0-3-0-5---5-5-5-8-0-3-5-|  twice

chorus
--------------------------------|
--------------------------------|
--------------------------------|
5-------7-0-3-5-----7-5-8-0-3-5-|

--------------------------------|
--------------------------------|
--------------------------------|
5---5---7-0-3-5---5-5-5-8-0-3-5-|  twice

verse twice

chorus twice

verse twice

cool thing
--------------------------------|
--------------------------------|
0---3-3-3-3-3-3--/8-8-8-8-8-8-8-|
--------------------------------|  4 times

verse once

bridge thing
--------------------------------|
--------------------------------|
--------------------------------|
7-7-7-7-7-7-7-7-8-8-8-8-8-8-8-8-|

----------------------------------------|
----------------------------------------|
----------------------------------------|
0-0-0-0-0-0-0-0-11-11-11-11-11-11-11-11-| once
                ^^^those are elevens^^^
verse once

bridge thing once

chorus twice

rest for a while (uh-huh)

chorus twice

cool thing 4 times

last riff
--------------------------------|
--------------------------------|
--------------------------------|
0---3-3-3-3---------------------|

and especially if you like At The Drive-in
            
Hard to play? Try these video lessons and learn fast. | Correct




comments powered by Disqus
↑ Back to top | Tablatures and chords are parodies/interpretations of the original songs. You may use it for private study, scholarship, research or language learning purposes only