» » »

Chanbara Tabs (ver.1)

Artists:  A B C D E F G H I J K L M N O P Q R S T U V W X Y Z # 

Chanbara Tabs (ver.1)

At The Drive-In
Rating:
4/5 (1 vote)

Hard to play? Try these video lessons and learn fast.
                     e:-------------|-----------------|
     b:-------------|-----------------|
 Gu1 g:-------------|-----------------|
     d:---7---7--7--|---7--XX-7---7---|
     a:---0---0--0--|---0--XX-0---0---|
     E:-------------|------XX---------|

     e:-------------|-----------------|
     b:-101010------|-----------------|
 Gu1 g:-8-8-8-------|-----------------|
     d:-7-7-7-------|-----------------|
     a:-------------|-----------------|
     E:-------------|-----------------|

______________________________________________
chorus riff

       e:-----------------|x4
       b:-----------------|
 Gu1+2 g:-----------------|
       d:-7--7----10--9--0|
       a:-0--0--0-0-0-0--7|
       E:-----------------|

on the intro bit when this is played gu2 plays
	
     e:--0-----------0--|-0-------------0-|
     b:--8-----------10-|-7-------------10|
 Gu2 g:--9--------------|-9---------------|
     d:-----------------|-----------------|
     a:-----------------|-----------------|
     E:-----------------|-----------------|

also on the chorus guitar 2 plays this chord every 4 progressions

  |x-|
  |10|
  |8-|
  |7-|
  |x-|
  |x-|

_______________________________________________________
post chorus

 gu1+2  these chords in order along to the rythem on the track
	A5  C5  F5

_____________________________________________________
post chorus continue


 Gu1 e:-8-5-----------5-8-5-------------| continuous
     b:-----0-5-8-0-5-------0-5-8-0-5---|


     e:--------------------------|--------------------------|
     b:-12--12--12-12-1515--1515-|-12--12--12-12-1212--1212-|
 Gu2 g:-14--14--14-14-1414--1414-|-14--14--14-14-1414--1414-|
     d:-14--14--14-14-1414--1414-|-14--14--14-14-1414--1414-|
     a:-0---0---0--0--0-0---0-0--|-0---0---0--0--1212--1212-|
     E:--------------------------|--------------------------|
     then
     e:-------------------------------------------------|x2 clean
     b:-10-10-10-10-10-10-10-10-10-10-10-10-10-10-10-10-|
 Gu2 g:-9--9--9--9--9--9--9--9--9--9--9--9--9--9--9--9--|
     d:-10-10-10-10-10-10-10-10-10-10-10-10-10-10-10-10-|
     a:-0--0--0--0--0--0--0--0--0--0--0--0--0--0--0--0--|
     E:-------------------------------------------------|

     e:--------------------------|--------------------------|
     b:-13--13--13-13-1313--1313-|-13--13--13-13-1313--1313-|
 Gu2 g:-14--14--14-14-1414--1414-|-14--14--14-14-1414--1414-|
     d:-14--14--14-14-1414--1414-|-14--14--14-14-1414--1414-|
     a:-0---0---0--0--1212--1212-|-0---0---0--0--1212--1212-|
     E:--------------------------|--------------------------|
     then
     e:-------------------------------------------------|x2 overdriven
     b:-10-10-10-10-10-10-10-10-10-10-10-10-10-10-10-10-|
 Gu2 g:-9--9--9--9--9--9--9--9--9--9--9--9--9--9--9--9--|
     d:-10-10-10-10-10-10-10-10-12-12-12-12-12-12-12-12-|
     a:-0--0--0--0--0--0--0--0--0--0--0--0--0--0--0--0--|
     E:-------------------------------------------------|
            
Hard to play? Try these video lessons and learn fast. | Correct




comments powered by Disqus
↑ Back to top | Tablatures and chords are parodies/interpretations of the original songs. You may use it for private study, scholarship, research or language learning purposes only