>
 >
Alpha Centauri

Alpha Centauri Guitar Tabs

At The Drive-In - Alpha Centauri chords, tabs, tablatures, lyrics

Guitar lessons | Add/correct | Request | Top 50 tabs Artists:  A B C D E F G H I J K L M N O P Q R S T U V W X Y Z 0-9

Alpha Centauri Guitar Tabs – At The Drive-In

CD, Sheet music, Poster

Do you like Alpha Centauri? Share with your friends now
Bass TabsTabsTabs v2
Intro:
gtr1:                  gtr2:
e|-------------------|---------------------|
b|-------------------|---------------------|
g|-------------------|---------------------|
d|-------------------|---------------------|
a|---<7><7><7><7>----|---------------------|
e|---<5><5><5><5>----|---000000000000557---|

Verse:
                x3                 x1
 gtr1:
e|-----------------------|---------------------|
b|-----------------------|---------------------|
g|-----------------------|---7-7-7-7-7-7-7-7---|
d|-----------------------|---7-7-7-7-7-7-7-7---|
a|---<7><7><7><7>--------|---5-5-5-5-5-5-5-5---|
e|---<5><5><5><5>-557----|---------------------|

gtr2:
e|-----------------------|----------------------|
b|-----------------------|----------------------|
g|---11-11-11-11/12-11---|---7-9-11-11/1211-----|
d|-----------------------|----------------------|
a|---9--9--9--9/10--9----|---5-7--9--9/109------|
e|-----------------------|----------------------|

  both guitars
e|-----------------------------------------|
b|---6-6-6-6-6-6-6-<6>--5-5-5-5-5-5-<6>----|
g|---6-6-6-6-6-6-6------5-5-5-5-5-5--------|
d|---6-6-6-6-6-6-6------5-5-5-5-5-5--------|
a|---4-4-4-4-4-4-4------3-3-3-3-3-3--------|
e|-----------------------------------------|

Bridge:
  gtr1:
e|-----------------------------------------------------|
b|-----------------------------------------------------|
g|---7-7-7-7-7-7-7-7-----------------------------------|
d|---7-7-7-7-7-7-7-7-9-9-9-9-9-9-9-9-7-7-7-7-7-7-7-7---|
a|---5-5-5-5-5-5-5-5-9-9-9-9-9-9-9-9-7-7-7-7-7-7-7-7---|
e|-------------------7-7-7-7-7-7-7-7-5-5-5-5-5-5-5-5---|

  gtr2:
e|-----------------------------------------------------|
b|-----------------------------------------------------|
g|-----------------------------------------------------|
d|---55-4-2---55-4-2---2--0--2--0-0--------------------|
a|-----------------------------------<7><7><7><7><7>---|
e|-----------------------------------<5><5><5><5><5>---|

 both guitars
e|--------------------------------|
b|--------------------------------|
g|--------------------------------|
d|--------------------------------|
a|--------------------------------|
e|---333222333232--333222333232---|

Bridge2:
  gtr1:
e|------------|----------------------------------|
b|------------|---5-----------------5------------|
g|------------|---------4---4h5p4---------4------|
d|---5p4h5p4--|-----5-0---0-----------5-0----7---|
a|------------|----------------------------------|
e|------------|----------------------------------|

 gtr2:
e|-----------7-7-7----------------|
b|-------8-8-8-8-8------8-----8---|
g|-----9-9-9-9-9-9----9-9---9-9---|
d|--------------------------------|
a|---0----------------------------|
e|------------------8-----7-------|

End:
e|-------0------------0-----0---------7----------0-----0---|
b|-------8-------------------------8----8------------------|
g|-----9---9--------7-----7------9--------9----7-----7-----|
d|-----------7---------------------------------------------|
a|---0---------0---------------0---------------------------|
e|----------------8-----7--------------------8-----7-------|

e|---------10----------0-----0-----0------------0-----0-------|
b|-------8----8--------------------8--------------------------|
g|-----9--------9----7-----7-----9---9--------7-----7-----9---|
d|-------------------------------------7-----------------7----|
a|---0-------------------------0---------0--------------0-----|
e|-----------------8-----7------------------8-----7-----------|





Comments


Popular At The Drive-In tabs & chords
198d 1 Bass Tabs
Cosmonaut 1 Bass Tabs
Hulahoop Bass Tabs
Transatlantic Foe Bass Tabs
Transatlantic Foe 2 Bass Tabs
Winter Month Novelty Bass Tabs
300 Mhz Tabs
Invalid Litter Dept Tabs
Pattern Against User 2 Tabs
Schaffino Tabs


Song lyrics



↑ Back to top | Tablatures and chords are parodies/interpretations of the original songs. You may use it for private study, scholarship, research or language learning purposes only
© 2014 AZChords.com Contact us | Privacy policy | DMCA | Add/correct tabs | Request tabs | Top 50 tabs