» » »

300 Mhz Tabs (ver.2)

Artists:  A B C D E F G H I J K L M N O P Q R S T U V W X Y Z # 

300 Mhz Tabs (ver.2)

At The Drive-In
Rating:
0/5 (0 votes)

Hard to play? Try these video lessons and learn fast.
                At the Drive-In
300 MHz
off the "Vaya" EP
Standard tuneing

~=let note ring 
h=hammer on
p=pull off
/=slide

riff a
|-----------------|
|-2-2--2-2--2-2/5-|
|-4-4--4-4--4-4/7-|
|-----------------|
|-----------------|
|-----------------|

riff b
(guitar 1)
|-------------------|
|-------------------|
|-------------------|
|-------------------|
|-7--10-9--7h9p7--9-|
|-------------------|

(gtr. 2)
|---------------------|
|---------------------|
|---------------------|
|---------------------|
|-3~-2~-1-0-----------|
|-----------3-2---0-2-|

riff c
(gtr. 1)
|--------------------------|
|--------------------------|
|-12-121212-11h12h11-11h12-|
|--------------------------|
|--------------------------|
|--------------------------|
(gtr. 2 is coming soon, I still have to finish it up)

riff d
|---8-10-8-0---------------------|
|------------8-----0-8-0-9-0-8-0-|
|-9------------9~----------------|
|--------------------------------|
|--------------------------------|
|--------------------------------|
(I didn't tab the other guitar part, someone feel
 free to add it to the corrections)


The ending is just the verse, played faster than normal.
            
Hard to play? Try these video lessons and learn fast. | Correct




comments powered by Disqus
↑ Back to top | Tablatures and chords are parodies/interpretations of the original songs. You may use it for private study, scholarship, research or language learning purposes only