» » »

300 Mhz Tabs (ver.1)

Artists:  A B C D E F G H I J K L M N O P Q R S T U V W X Y Z # 

300 Mhz Tabs (ver.1)

At The Drive-In
Rating:
0/5 (0 votes)

Hard to play? Try these video lessons and learn fast.
                Tuning: Standard (EADGBE)

This is one of the best ATDI songs I have ever heard, if not the best.

guitar 1
-----------------
-----------------
--22-22-22-22-5--
--44-44-44-44-7--
--00-00-00-00-0--
-----------------

guitar 2
-----------------
-----------------
--22-22-22-22-5--
--44-44-44-44-7--
-----------------
-----------------


guitar 1
-------------------
-------------------
------------------- some variations in how this is played (not hard to notice)
--5-4-3-2----------
--3-2-1-0-2-4-2-4--
----------0-2-0-2--

guitar 2
------------------                 ---------
------------------ then at the end ---------
------------------ play with g1    ---------
------------------                 ---------
--5h7-10-9-7h9-5--                 --3-2-1--
------------------                 ---------


guitar 1
-----
--0--
--2-- play this chord many times very fast
--4--
--0--
-----

guitar 2
--------------------------------------          -------------------------------------------
--------------------------------------          -------------------------------------------
--12-12-12-12-12-12-12-12-12-12-9/11-- end with --12-12-12-12-12-12-12-12-11-11-11-11-9-9--
---x--x--x--x--x--x--x--x--x--x-x/-x--          ---x--x--x--x--x--x--x--x--x--x--x--x-x-x--
--10-10-10-10-10-10-10-10-10-10-7/-9--          --10-10-10-10-10-10-10-10--9--9--9--9-7-7--
--------------------------------------          -------------------------------------------


guitar 1
-----0-8-9-8-0-8---0-5-0-7-0------
--10-------------6-----------4-0--
----------------------------------
----------------------------------
----------------------------------
----------------------------------

currently tabbing out guitar 2's chords and the rest of the song (almost done)
            
Hard to play? Try these video lessons and learn fast. | Correct




comments powered by Disqus
↑ Back to top | Tablatures and chords are parodies/interpretations of the original songs. You may use it for private study, scholarship, research or language learning purposes only