» » »

At The Drive-In, 198d Bass tabs (ver.2)

Artists:  A B C D E F G H I J K L M N O P Q R S T U V W X Y Z # 

198d Bass tabs (ver.2)

At The Drive-In Tabs
 Rating:
4/5 (4 votes)
198d lessons Tabs too difficult? Try these video lessons and learn fast
1
                -------------------------------------------------------------------------------
-------------------------------------------------------------------------------
 
 
 Tuning:Standard
 Intro x2 (0.10
G|-----------------------------------------------------|
D|-----2--0-2-0-----4------------2--0-0h2p0---4--------|
A|---------------2----22-2p0-----------------2-2--2-0--|
E|5-0-------------------------0------------------------|
 
 (0.33)
G|---------|
D|---------|
A|---------|
E|3~-------|
  
 Verse "this is forgiven if the uniform fits"
G|-----------------------------------------------------|
D|-----2--0-2-0-----4------------2--0-0h2p0---4--------|
A|---------------2----22-2p0-----------------2-2--2-0--|
E|5-0-------------------------0------------------------|

G|-----------------------------------------------------|
D|-----2--2p0-0------4------------2--0-0h2p0---4-------|
A|---------------2----22-2p0------------------2-2--2-0-|
E|5-0-------------------------0------------------------|

G|-----------------------------------------------------|
D|-----2--2p0-0------4------------2--0-0h2p0---4-------|
A|---------------2----22-2p0------------------2-2--2-0-|
E|5-0-------------------------0------------------------|

 Chorus(1.11) "born in hearts"
G|--------------------------------------------------|
D|---2-0-0h2p0----4----------2--0-0h2p0---4---------|
A|-------------2----22-2-----------------2-2--2p0---|
E|0---------------------3-0-------------------------|

G|-----------------------------------------|
D|---2-0-0h2p0----4----------2--0-0h2p0----|
A|-------------2----22-2-------------------|
E|0---------------------3-0----------------|

G|---------------------|
D|---------------------|
A|2~----0~-------------|
E|------------3~-------|

 Verse "nothing bleeds the same"
G|-----------------------------------------------------|
D|-----2--0-2-0-----4------------2--0-0h2p0---4--------|
A|---------------2----22-2p0-----------------2-2--2-0--|
E|5-0-------------------------0------------------------|

G|-----------------------------------------------------|
D|-----2--2p0-0------4------------2--0-0h2p0---4-------|
A|---------------2----22-2p0------------------2-2--2-0-|
E|5-0-------------------------0------------------------|

G|-----------------------------------------------------|
D|-----2--2p0-0------4------------2--0-0h2p0---4-------|
A|---------------2----22-2p0------------------2-2--2-0-|
E|5-0-------------------------0------------------------|

 Chorus
G|--------------------------------------------------|
D|---2-0-0h2p0----4----------2--0-0h2p0---4---------|
A|-------------2----22-2-----------------2-2--2p0---|
E|0---------------------3-0-------------------------|

G|-----------------------------------------|
D|---2-0-0h2p0----4----------2--0-0h2p0----|
A|-------------2----22-2-------------------|
E|0---------------------3-0----------------|

G|---------------------|
D|---------------------|
A|2~----0~-------------|
E|------------3~-------|
 
  Bridge (2.54)
G|------------------------|
D|------------------------|
A|1/2~----0~----------5~--|
E|--------------3~--------|
 x3 "tremors that hold us"
G|-------------------------------|
D|-------------------------------|
A|22222222-00000000--------------|
E|------------------33-33-3------|
 x1
G|-------------------------------------------|
D|-------------------------------------------|
A|22222222-00000000--------------------------|
E|------------------33-33-3-33-33-3----------|

 Chorus
G|--------------------------------------------------|
D|---2-0-0h2p0----4----------2--0-0h2p0---4---------|
A|-------------2----22-2-----------------2-2--2p0---|
E|0---------------------3-0-------------------------|

G|-----------------------------------------|
D|---2-0-0h2p0----4----------2--0-0h2p0----|
A|-------------2----22-2-------------------|
E|0---------------------3-0----------------|

 End off
G|-----------|
D|-----------|
A|2~---------|
E|-----------|
            
Submit corrections

comments powered by Disqus
↑ Back to top | At The Drive-In Bass for 198d. Lyrics for acoustic guitar and electric guitar. 1 Tablatures and chords are parodies/interpretations of the original songs. You may use it for private study, scholarship, research or language learning purposes only