» » »

Attack Attack, You And Me Tabs (ver.2)

Artists:  A B C D E F G H I J K L M N O P Q R S T U V W X Y Z # 

You And Me Tabs (ver.2)

Attack Attack Tabs
Rating:
0/5 (0 votes)
You And Me lessons Tabs too difficult? Try these video lessons and learn fast
                Hey Guys and girls of our generation:D

This song is real fun to play along to, and id like to thank the other guy who got 
the intro correct for this.
(ONLY LEAD GUITAR)
Attack Attack-
You and Me
(may recognise it from guitar hero 5)
Standard Tuneing(E-A-D-G-B-e)

[-----UPDATE-----]
Thnx to me from playing this song again and realizing the end note is wrong...:(



/  slide up
| \  slide down
| h  hammer-on
| p  pull-off
| ~  vibrato
| +  harmonic
| x  Mute note


Intro:

e(-----5-5-0-0----------)
B(-------------5-5/7-3-3)
G(----------------------)
D(----------------------)
A(-2-2------------------)
E(----------------------)

e(-----5-5-0-0-------xxxxx-)
B(-------------5-5/7-xxxxx-)
G(-------------------xxxxx-)
D(-------------------xxxxx-)
A(-2-2---------------xxxxx-)
E(-------------------xxxxx-)

e(-----5-5-0-0----------)
B(-------------5-5/7-3-3)
G(----------------------)
D(----------------------)
A(-2-2------------------)
E(----------------------)

e(-----5-5-0-0-----------)
B(-------------5-5/7-----)
G(-----------------------)
D(-----------------------)
A(-2-2-------------------)
E(-----------------------)

e(-----5-5-0-0----------)
B(-------------5-5/7-3-3)
G(----------------------)
D(----------------------)
A(-2-2------------------)
E(----------------------)

e(-----5-5-0-0-------xx-)
B(-------------5-5/7-xx-)
G(-------------------xx-)
D(-------------------xx-)
A(-2-2---------------xx-)
E(-------------------xx-)

e(-----5-5-0-0----------)
B(-------------5-5/7-3-3)
G(----------------------)
D(----------------------)
A(-2-2------------------)
E(----------------------)

e(-----5-5-0-0--------)
B(-------------5-5/7--)
G(--------------------)
D(--------------------)
A(-2-2----------------)
E(--------------------)

Verse:
e(------------------)
B(------------------)
G(------------------)
D(-9-9-9-9-7-7-5-5--)
A(-9-9-9-9-7-7-5-5--)
E(------------------)x2


e(--------------------------)
B(--------------------------)
G(--------------------------)
D(-9-9-9-9-9-9-9-9--7-7-7-6-)
A(-9-9-9-9-9-9-9-9--5-5-5-4-)
E(--------------------------)


e(-----------------------------)
B(-----------------------------)
G(-----------------------------)
D(-9-9-9-9-9-9-9-9--6-6-6-5----)
A(-9-9-9-9-9-9-9-9--4-4-4-3----)
E(-----------------------------)

This cool part after the verus:
e(-----5-------5-------5-------5-------5-------5-------5-------5-----)
B(---3---3---3---3---3---3---3---3---3---3---3---3---3---3---3---3---)
G(-4-------4-------4-------4-------4-------4-------4-------4-------4-)
D(-------------------------------------------------------------------)
A(-------------------------------------------------------------------)
E(-------------------------------------------------------------------)x2

Chorus:
e(------------------------------------------------------------------)
B(------------------------------------------------------------------)
G(------------------------------------------------------------------)
D(---------------------------------7777777777777777-----------------)
A(-9999999999999999555555555555555555555555555555557777777777777777-)
E(-77777777777777773333333333333333----------------5555555555555555-)

Then back into Verse

Verse:
e(------------------)
B(------------------)
G(------------------)
D(-9-9-9-9-7-7-5-5--)
A(-9-9-9-9-7-7-5-5--)
E(------------------)x2


e(--------------------------)
B(--------------------------)
G(--------------------------)
D(-9-9-9-9-9-9-9-9--7-7-7-6-)
A(-9-9-9-9-9-9-9-9--5-5-5-4-)
E(--------------------------)


e(-----------------------------)
B(-----------------------------)
G(-----------------------------)
D(-9-9-9-9-9-9-9-9--6-6-6-5----)
A(-9-9-9-9-9-9-9-9--4-4-4-3----)
E(-----------------------------)

This cool part after the verus:
e(-----5-------5-------5-------5-------5-------5-------5-------5-----)
B(---3---3---3---3---3---3---3---3---3---3---3---3---3---3---3---3---)
G(-4-------4-------4-------4-------4-------4-------4-------4-------4-)
D(-------------------------------------------------------------------)
A(-------------------------------------------------------------------)
E(-------------------------------------------------------------------)x2

Chorus:
e(------------------------------------------------------------------)
B(------------------------------------------------------------------)
G(------------------------------------------------------------------)
D(---------------------------------7777777777777777-----------------)
A(-9999999999999999555555555555555555555555555555557777777777777777-)
E(-77777777777777773333333333333333----------------5555555555555555-)x2

(on second repeat of chorus lead atually plays the intro again)

e(-----5-5-0-0----------)
B(-------------5-5/7\3-3)
G(----------------------)
D(----------------------)
A(-2-2------------------)
E(----------------------)

e(-----5-5-0-0-------xx-)
B(-------------5-5/7-xx-)
G(-------------------xx-)
D(-------------------xx-)
A(-2-2---------------xx-)
E(-------------------xx-)

e(-----5-5-0-0----------)
B(-------------5-5/7\3-3)
G(----------------------)
D(----------------------)
A(-2-2------------------)
E(----------------------)

e(-----5-5-0-0-----------)
B(-------------5-5/7-----)
G(-----------------------)
D(-----------------------)
A(-2-2-------------------)
E(-----------------------)

Then theres this part which im not 100% positive:

e(---------------------------)
B(--------------8-10-8-6-7-6-)
G(-8h10-6h7-4h6--------------)
D(---------------------------)
A(---------------------------)
E(---------------------------) x4

then theres like a big silence then suddenly this
"you and me are thinking the same way"(then guitar comes in with)
e(-------------------------------------------)
B(-------------------------------------------)
G(-------------------------------------------)
D(---------7777777777777777------------------)
A(-5555555555555555555555557777777777777777--)
E(-33333333----------------5555555555555555--)

Then the intro part again:

e(-----5-5-0-0----------)
B(-------------5-5/7\3-3)
G(----------------------)
D(----------------------)
A(-2-2------------------)
E(----------------------)

e(-----5-5-0-0-------xx-)
B(-------------5-5/7-xx-)
G(-------------------xx-)
D(-------------------xx-)
A(-2-2---------------xx-)
E(-------------------xx-)

e(-----5-5-0-0----------)
B(-------------5-5/7\3-3)
G(----------------------)
D(----------------------)
A(-2-2------------------)
E(----------------------)

e(-----5-5-0-0-----------)
B(-------------5-5/7-----)
G(-----------------------)
D(-----------------------)
A(-2-2-------------------)
E(-----------------------)

Then the final intro part is that thing im not to sure about:

e(---------------------------)
B(--------------8-10-8-6-7-6-)
G(-8h10-6h7-4h6--------------)
D(---------------------------)
A(---------------------------)
E(---------------------------) x4

Then end on 

e[---]
B[---]
G[-6-]
D[---]
A[---]
E[---]

Thanks for viewing my tab guys, and just chillout on this song, its fun to play.PLEASE RATE!!!!
            

comments powered by Disqus
↑ Back to top | Attack Attack Tabs for You And Me. Lyrics for acoustic guitar and electric guitar. Tablatures and chords are parodies/interpretations of the original songs. You may use it for private study, scholarship, research or language learning purposes only