>
 >
You And Me

You And Me Guitar Tabs

Attack Attack - You And Me chords, tabs, tablatures, lyrics

Guitar lessons | Add/correct | Request | Top 50 tabs Artists:  A B C D E F G H I J K L M N O P Q R S T U V W X Y Z 0-9

You And Me Guitar Tabs – Attack Attack

CD, Sheet music, Poster

Do you like You And Me? Share with your friends now
Bass TabsChordsTabsTabs v2Tabs v3Ukulele
Hey guys...so, my last tab was a little wrong, and this is correct...99.5%

Standard tuning
Attack Attack!UK
Attack Attack

e(-----5-5-0-0----------)
B(-------------5-5/7-3-3)
G(----------------------)
D(----------------------)
A(-2-2------------------)
E(----------------------)

e(-----5-5-0-0-------xxxxx-)
B(-------------5-5/7-xxxxx-)
G(-------------------xxxxx-)
D(-------------------xxxxx-)
A(-2-2---------------xxxxx-)
E(-------------------xxxxx-)

e(-----5-5-0-0----------)
B(-------------5-5/7-3-3)
G(----------------------)
D(----------------------)
A(-2-2------------------)
E(----------------------)

e(-----5-5-0-0-----------)
B(-------------5-5/7-----)
G(-----------------------)
D(-----------------------)
A(-2-2-------------------)
E(-----------------------)

e(-----5-5-0-0----------)
B(-------------5-5/7-3-3)
G(----------------------)
D(----------------------)
A(-2-2------------------)
E(----------------------)

e(-----5-5-0-0-------xx-)
B(-------------5-5/7-xx-)
G(-------------------xx-)
D(-------------------xx-)
A(-2-2---------------xx-)
E(-------------------xx-)

e(-----5-5-0-0----------)
B(-------------5-5/7-3-3)
G(----------------------)
D(----------------------)
A(-2-2------------------)
E(----------------------)

e(-----5-5-0-0--------)
B(-------------5-5/7--)
G(--------------------)
D(--------------------)
A(-2-2----------------)
E(--------------------)


verse-

e(-x-0-0-0-0-x-3-3-2-2)
B(-x-3-3-3-3-x-3-3-3-3)
G(-x-2-2-2-2-x-2-2-2-2)
D(-x-0-0-0-0-x-0-0-0-0)
a(--------------------)
E(--------------------)x2

e(-0-0-0-0-0-0-0-0-3-3-2-2--3-3-2-2)
B(-3-3-3-3-3-3-3-3-3-3-3-3--3-3-3-3)
G(-2-2-2-2-2-2-2-2-2-2-2-2--2-2-2-2)
D(-0-0-0-0-0-0-0-0-0-0-0-0--0-0-0-0)
a(---------------------------------)
E(---------------------------------)X2


Bridge-

e(----5---5---5---5---)
B(--3--3-3-3-3-3-3-3--)
G(-4----4---4---4----4)
D(--------------------)
a(--------------------)
E(--------------------) Keep repeating till chorus

Chorus-

e(-----------------------------------------------------------------)
B(-----------------------------------------------------------------)
G(----------------------------------777777777777777----------------)
D(-999999999999999-5555555555555555-777777777777777-777777777777777)
a(-999999999999999-5555555555555555-555555555555555-777777777777777)
E(-777777777777777-3333333333333333-----------------555555555555555)

Repeat verse and etc.

In the next chorus, the lead guitar plays riff#1(opening riff) in the middle of the chorus.

Then there is a "solo" sort of part

e(------------------------------)
B(----------------11h13p11------)
G(-10h12-7h8---------------6h8p6)
D(-----------8h10---------------)
a(------------------------------)
E(------------------------------)

Then there is power chords...

e(----------------------)
B(----------------------)
G(----------------------)
D(-------------7-7-7----)
a(-7-7-4-4-5-5-5-5-5-7-7)
E(-5-5-2-2-3-3-------5-5)


then there is a sudden pause and the guitar thrashs in with
e(------------------------------------------------)
B(------------------------------------------------)
G(-----------------7-7-7-7-7-7-7-7----------------)
D(-5-5-5-5-5-5-5-5-7-7-7-7-7-7-7-7----------------)
a(-5-5-5-5-5-5-5-5-5-5-5-5-5-5-5-5-7-7-7-7-7-7-7-7)
E(-3-3-3-3-3-3-3-3-----------------5-5-5-5-5-5-5-5)

Then Chorus...
And the lead guitar Plays intro but a little different...

e(-----5-5-0-0----------)
B(-------------5-5/7\3-3)
G(----------------------)
D(----------------------)
A(-2-2------------------)
E(----------------------)

e(-----5-5-0-0-------xx)
B(-------------5-5/7-xx)
G(-------------------xx)
D(-------------------xx)
A(-2-2---------------xx)
E(-------------------xx)This is also the way to play it in the middle of the song, in 
middle of the chorus...

Outro-

e(------------------------------)
B(----------------11h13p11------)
G(-10h12-7h8---------------6h8p6)
D(-----------8h10---------------)
a(------------------------------)
E(------------------------------)

End With:
e[----]
B[----]
G[-10~]
D[----]
A[----]
E[----]

Figure pattern out yurself

Thats it, please rate and comment:)





Comments


Popular Attack Attack tabs & chords
Stick Stickly 3 Bass Tabs
The Peoples Elbow 3 Bass Tabs
Turbo Swag 2 Chords
Honestly Tabs
Renob Nevada Intro Tabs
Sexual Man Chocolate Tabs
Smokahontas 1 Tabs
The Peoples Elbow 1 Tabs
Too Bad Son Tabs
Were Not The Enemy Tabs


Song lyrics



↑ Back to top | Tablatures and chords are parodies/interpretations of the original songs. You may use it for private study, scholarship, research or language learning purposes only
© 2014 AZChords.com Contact us | Privacy policy | DMCA | Add/correct tabs | Request tabs | Top 50 tabs