» » »

Attack Attack, What Happens If I Cant Check My Myspace When We Get There Tabs (ver.1)

Artists:  A B C D E F G H I J K L M N O P Q R S T U V W X Y Z # 

What Happens If I Cant Check My Myspace When We Get There Tabs (ver.1)

Attack Attack Tabs
 Rating:
4/5 (4 votes)
What Happens If I Cant Check My Myspace When We Get There lessons Tabs too difficult? Try these video lessons and learn fast
                Tuning drop-d down 1/2 step (low to high (C# G# C# F# A# d#)

Intro
|-------------------|o---------------------------------|
|-------------------|o---------------------------------|
|-------------------|o---------------------------------|
|-x\\\\\\\\\\\\\\\\-|o--0--0---------------------------|
|-x\\\\\\\\\\\\\\\\-|o--0--0--8---7---8---10---8---7h8-|
|-x\\\\\\\\\\\\\\\\-|o--0--0----0---0---0----0---0-----|
     Pick slide(0:05)

|-----------------------------------o|
|-----------------------------------o|
|-----------------------------------o|
|-8---------------10----------------o|
|-8----8---7h8----10-----12----8h10-o|
|-8--8---8-----0--10--10----10------o|
       
Chorus

|---------------------------------------------|
|---------------------------------------------|
|-7--------/9----/10----/12--------/14--------|
|-x---------x------x--------------------------|
|-5--------/7----/-8----/10--------/12--------|
|---------------------------------------------|
  8X       4X     4X     8X         8x


|---------------------------------------------|
|---------------------------------------------|
|-7--------/9----/10----/12-------------------|
|-x---------x------x--------------------------|
|-5--------/7----/-8----/10-------------------|
|---------------------------------------------|
  8X       4X     4X     16X

Verse
|o-----------------------------------------------------------------------o|
|o------4--4--------4--4------------------4--4--------4--4---------------o|
|o------7~-7~-------7~-7~-----------------7~-7~-------7~-7~--------------o|
|o-----------------------------------------------------------------------o|
|o-----------------------------------------------------------------------o|
|o--0-0-------0-0-0-------0-0--0-0-0--0-0-------0-0-0-------12\\\\\--3h5-o|

|o------------------------------------------------o|
|o-------4--------------4-------------------------o|
|o-------7b/------------7b/-----------------------o|
|o------------------------------------------------o|
|o--0--0----------0--0----------------------------o|
|o--0--0----------0--0-----------7h0-5h0-3h5--5*--o|

Pre-Chorus
|o-----------------------------------------------------------------o|
|o-----------------------------------------------------------------o|
|o-10--------/12----/14------/15-----\12--------\9------/10--------o|  X3
|o--x---------x-------x--------x-------x---------x--------x--------o|
|o--8--------/10----/12------/13-----\10--------\7------/-8--------o|
|o-----------------------------------------------------------------o|
  (Figure out strumming for yourself)

|------|
|------|
|------|
|--0---|
|--0---|
|--0---|

Chorus

Outro
|----------------------------------------------------------o|
|----------------------------------------------------------o|
|----------------------------------------------------------o| X4
|--12--12--12--12--12--12--12--12--8--8--8--8--8--8--8--8--o|
|--12--12--12--12--12--12--12--12--8--8--8--8--8--8--8--8--o|
|--12--12--12--12--12--12--12--12--8--8--8--8--8--8--8--8--o|
    ^   ^   ^   ^   ^   ^   ^   ^  ^  ^  ^  ^  ^  ^  ^  ^
|-------|
|-------|
|-------|
|--0----|
|--0----|
|--0----|


This is how I play it and it sounds about right to me :D

Symbols:
b - bend
h - hammer-on
/ - slide up
\ - slide down
* - pinch harmonic
^ - percussive accent
~ - slight bend
            
Submit corrections

comments powered by Disqus
↑ Back to top | Attack Attack Tabs for What Happens If I Cant Check My Myspace When We Get There. Lyrics for acoustic guitar and electric guitar. Tablatures and chords are parodies/interpretations of the original songs. You may use it for private study, scholarship, research or language learning purposes only