» » »

Were Not The Enemy Tabs (ver.3)

Artists:  A B C D E F G H I J K L M N O P Q R S T U V W X Y Z # 

Were Not The Enemy Tabs (ver.3)

Attack Attack
Rating:
0/5 (0 votes)

Hard to play? Try these video lessons and learn fast.
                INTRO
e|--------------------------------------------------------|
B|--------------------------------------------------------|
G|--------------------------------------------------------|
D|--44-44-4--44-44-4--44-44-4 ----------------------------|
A|--44-44-4--44-44-4--44-44-4------9----------------------|
D|--44-44-4--44-44-4--44-44-4---77---777-9----------------|

************************************************************

Verse 1
e|--------------------------------------------------------|
B|--------------------------------------------------------|
G|--------------------------------------------------------|
D|--44-44-4--44-44-4--44-44-4-----------------------------| x2
A|--44-44-4--44-44-4--44-44-4------9----------------------|
D|--44-44-4--44-44-4--44-44-4---77---777-9----------------|


e|--------------------------------------------------------|
B|--------------------------------------------------------|
G|--------------------------------------------------------|
D|--44-------44-------------------------------------------|
A|--44-------44--------------------9----------------------|
D|--44-------44-----------------77---777-9----------------|

e|--------------------------------------------------------|
B|--------------------------------------------------------|
G|--------------------------------------------------------|
D|--44-44-4--44-44-4--44-44-4 ----------------------------| x3
A|--44-44-4--44-44-4--44-44-4------9----------------------|
D|--44-44-4--44-44-4--44-44-4---77---777-9----------------|


e|--------------------------------------------------------|
B|--------------------------------------------------------|
G|--------------------------------------------------------|
D|--44-44-4--44-44-4--44-44-4 ----------------------------|
A|--44-44-4--44-44-4--44-44-4------9----------------------|
D|--44-44-4--44-44-4--44-44-4---77---77-------------------|

************************************************************

PRE CHORUS
e|--------------------------------------------------------|
B|--------------------------------------------------------|
G|--------------------------------------------------------|
D|--7-----------4-----------7-----------2-------0---------| 
A|--7-(x16)-----4-(x16)-----7-(x16)-----2-(x15)-0---------|
D|--7-----------4-----------7-----------2-------0---------|

************************************************************

CHORUS
e|--------------------------------------------------------|
B|--------------------------------------------------------|
G|--------------------------------------------------------|
D|--4-------7779-9~7779-9~77---2---------4442224442224440-| 
A|--4-(x16)-7779-9~7779-9~77---2-(x16)---4442224442224440-|
D|--4-------7779-9~7779-9~77---2---------4442224442224440-|

************************************************************

VERSE 2
e|--------------------------------------------------------|
B|--------------------------------------------------------|
G|--------------------------------------------------------|
D|--44-44-4--44-44-4--44-44-4-----------------------------| x2
A|--44-44-4--44-44-4--44-44-4------9----------------------|
D|--44-44-4--44-44-4--44-44-4---77---777-9----------------|


e|--------------------------------------------------------|
B|--------------------------------------------------------|
G|--------------------------------------------------------|
D|--44-44----44-44----44-44-------------------------------|
A|--44-44----44-44----44-44--------9----------------------|
D|--44-44----44-44----44-44-----77---777-9----------------|

e|--------------------------------------------------------|
B|--------------------------------------------------------|
G|--------------------------------------------------------|
D|--44-44-4--44-44-4--44-44-4 ----------------------------|
A|--44-44-4--44-44-4--44-44-4------9----------------------|
D|--44-44-4--44-44-4--44-44-4---77---77-------------------|

************************************************************

PRE CHORUS
e|--------------------------------------------------------|
B|--------------------------------------------------------|
G|--------------------------------------------------------|
D|--7-----------4-----------7-----------2-------0---------| 
A|--7-(x16)-----4-(x16)-----7-(x16)-----2-(x15)-0---------|
D|--7-----------4-----------7-----------2-------0---------|

************************************************************

CHORUS
e|--------------------------------------------------------|
B|--------------------------------------------------------|
G|--------------------------------------------------------|
D|--4-------7779-9~7779-9~77---2---------4442224442224440-| 
A|--4-(x16)-7779-9~7779-9~77---2-(x16)---4442224442224440-|
D|--4-------7779-9~7779-9~77---2---------4442224442224440-|

************************************************************

BRIDGE
e|--------------------------------------------------------|
B|--------------------------------------------------------|
G|--------------------------------------------------------|
D|--4-4~--------7-7~-----------2-2~----------0-0~---------| 
A|--4-4~--------7-7~-----------2-2~----------0-0~---------|
D|--4-4~--------7-7~-----------2-2~----------0-0~---------|

e|--------------------------------------------------------|
B|--------------------------------------------------------|
G|--------------------------------------------------------|
D|--4-----------7--------------2-------------00000000-----| 
A|--4-(x16)-----7-(x16)--------2-(x16)-------00000000-----|
D|--4-----------7--------------2-------------00000000-----|
 pm *           *              *             ********


************************************************************

CHORUS
e|--------------------------------------------------------|
B|--------------------------------------------------------|
G|--------------------------------------------------------|
D|--4-------7779-9~7779-9~77---2---------4442224442224440-| 
A|--4-(x16)-7779-9~7779-9~77---2-(x16)---4442224442224440-|
D|--4-------7779-9~7779-9~77---2---------4442224442224440-|

e|--------------------------------------------------------|
B|--------------------------------------------------------|
G|--------------------------------------------------------|
D|--4-------7779-9~7779-9~77---2---------4442224442224440-| 
A|--4-(x16)-7779-9~7779-9~77---2-(x16)---4442224442224440-|
D|--4-------7779-9~7779-9~77---2---------4442224442224440-|

************************************************************

OUTRO
e|--------------------------------------------------------|
B|--------------------------------------------------------|
G|--------------------------------------------------------|
D|--44-44-4--44-44-4--44-44-4 ----------------------------|
A|--44-44-4--44-44-4--44-44-4------9----------------------|
D|--44-44-4--44-44-4--44-44-4---77---79~------------------|
            
Hard to play? Try these video lessons and learn fast. | Correct




comments powered by Disqus
↑ Back to top | Tablatures and chords are parodies/interpretations of the original songs. You may use it for private study, scholarship, research or language learning purposes only